» » »

Craig Morgan - Thats What I Love About Sundays (330 Sessions) Tabs

Artists:  A B C D E F G H I J K L M N O P Q R S T U V W X Y Z # 

Thats What I Love About Sundays (330 Sessions) Tabs

(ver. 1) Click to play this song!
Craig Morgan
 Rating:
4/5 (4 votes)

 Thats What I Love About Sundays (330 Sessions) lessons Tabs too difficult? Try these video lessons and learn fast
 
                



Craig plays an awesome accoustic version on cmt 330 seesions. (just log onto cmt.com & view it for free)

They use 3 guitars - and this tab is a pretty good attempt at trancsribing what they play.
(But its far from perfect - these guys are great live)

Listen to the sound bite for timing (not that i have any - lol)


Capo 1


Intro (guitar 1)


E----------------------------------------------------------
B---------------1s3-3s1r0-------------------0h1r0----------
G-------0-0-----2s4-4s2r0-------0---0-0-----0h2r0-------0--
D---0h2-----2r0------------2r0--0h2-----2r0-------2-0-2---2
A----------------------------------------------------------
E----------------------------------------------------------


---------------------------------3-s---
---------------1s3-3-3s1r0-------1-t---
-------0-0-----2s4-4-4s2r0-------0-r---
---0h2-----2r0--------------2r0--0-u---
-----------------------------------m---
---------------------------------------



Chords (guitar 2) - See 'Big kens' tab


Fills (guiatr 3)


fill:
E--------------
B--------------
G-----0--------
D----0---------
A-0h2----------
E--------------

fill:
E--------------
B--------------
G--2h3p2p0-----
D----------2---
A--------------
E--------------

fill:
E--------------
B--------------
G-------0------
D----0h2-------
A--------------
E---------3----


fill:
E---------------------
B-1s3-1-0-------------
G-2s4-2-0--2h3p2p0--0-
D------------------2--
A---------------------
E---------------------

Then it goes onto the chours - i just play chords from there on.

Hope u enjoy.

Cheers Guys

            
Submit corrections


        Thats What I Love About Sundays (330 Sessions) lessons Hard to play? Try these video lessons and learn fast Thats What I Love About Sundays (330 Sessions) lessons
        
↑ Back to top | Tablatures and chords for acoustic guitar and electric guitar, ukulele, drums are parodies/interpretations of the original songs. You may use it for private study, scholarship, research or language learning purposes only