» » »

Craig Morgan - That's What I Love About Sunday (Amazing Grace) Tabs

Artists:  A B C D E F G H I J K L M N O P Q R S T U V W X Y Z # 

That's What I Love About Sunday (Amazing Grace) Tabs

(ver. 1) Click to play this song!
Craig Morgan
 Rating:
4/5 (4 votes)

 That's What I Love About Sunday (Amazing Grace) lessons Tabs too difficult? Try these video lessons and learn fast
 
                That's What I Love About Sunday (CMT Studio 330 Sessions) - Craig Morgan


"Amazing Grace" Part


Guitar 1 - G, C, G, D, G, C, G, Em, D, G - Basic Strum Pattern

Guitar 2 - Pick Up and Down Through Those chords

Guitar 3 - Lead

          
  Lick 1            Lick 2             Lick 3                Lick 4             Lick 5
E|-----------------|------------------|---------------------|-------------------|----------|
B|-----------------|-------1-0--------|------7-----5-----3--|-------------------|----------|
G|-----0-2s4-0-2-0-|---0-2-----2-0----|---------------------|-/5-3-0------------|--Repeat--|
D|-0-2-------------|------------------|--5s7---7s5---5s4----|--------(3)-2-0----|--Lick-1--|
A|-----------------|------------------|---------------------|----------------3--|----------|
E|-----------------|---------------3--|---------------------|-------------------|----------|


  Lick 6 (transition into "That's What I Love About Sunday")
E|-----------------------------------------------------------------------------------------|
B|-----------------------------------------------------------------------------------------|
G|-----------------------------------------------------------------------------------------|
D|---2-----0-----0-------------------------------------------------------------------------|
A|-3---3-2---2-0---0-----------------------------------------------------------------------|
E|-------------------3---------------------------------------------------------------------|



            
Submit corrections


        That's What I Love About Sunday (Amazing Grace) lessons Hard to play? Try these video lessons and learn fast That's What I Love About Sunday (Amazing Grace) lessons
        
↑ Back to top | Tablatures and chords for acoustic guitar and electric guitar, ukulele, drums are parodies/interpretations of the original songs. You may use it for private study, scholarship, research or language learning purposes only