» » »

Craig Morgan - Bonfire Fills Tabs

Artists:  A B C D E F G H I J K L M N O P Q R S T U V W X Y Z # 

Bonfire Fills Tabs

(ver. 1) Click to play this song!
Craig Morgan
 Rating:
4/5 (4 votes)

 Bonfire Fills lessons Tabs too difficult? Try these video lessons and learn fast
 
                
0:46 & 1:27

E----------5---------------------|
B---8p6------8p6-----------------|
G-------h7-------h7p5------------|
D---------------------h7---------|
A--------------------------------|
E--------------------------------|

2:22

E------------------------5-----------------|
B-------------------8p6-----8p6------------|
G--7p0-0-0-5p0-0-0-----h7-------h7p5-------|
D-----------------------------------h7-----|
A------------------------------------------|
E------------------------------------------|

Hey, before you learn this try, playing the opening riff 
that solo anyways. Oh yeah, a big tip of the hat to Brian Earl Haines 
for posting his video on you tube. Check it out to SEE these riffs

Also, every time you hit the last A note 4th string 7th fret, you 
COULD just hit an A5


E----------5---------------------|
B---8p6------8p6-----------------|
G-------h7-------h7p5-2----------|
D---------------------2----------|
A---------------------0----------|
E--------------------------------|

which is what I have to do live since the other guitar player
is playing a Variax set on Banjo. 
Hope this helps, rate this tab please.
            
Submit corrections


        Bonfire Fills lessons Hard to play? Try these video lessons and learn fast Bonfire Fills lessons
        
↑ Back to top | Tablatures and chords for acoustic guitar and electric guitar, ukulele, drums are parodies/interpretations of the original songs. You may use it for private study, scholarship, research or language learning purposes only