» » »

Craft Spells - The Fog Rose High Bass

Artists:  A B C D E F G H I J K L M N O P Q R S T U V W X Y Z # 

The Fog Rose High Bass

(ver. 1) Click to play this song!
Craft Spells
 Rating:
4/5 (4 votes)

 The Fog Rose High lessons Tabs too difficult? Try these video lessons and learn fast
 
                -----------------------------------------------------------------
The Fog Rose High - Craft Spells
-----------------------------------------------------------------
Tuning: Standard

Intro: (x2)

G|----------------|----------------|----------------|----------------|
D|----------------|----------------|2-----2-2-------|2-----2-2---4---|
A|2-----2-2-------|2-----2-2---4---|----------------|----------------|
E|----------------|----------------|----------------|----------------|

Verse: (x4)

G|----------------|----------------|----------------|----------------|
D|----------------|----------------|2-----2-2-------|2-----2-2---4---|
A|2-----2-2-------|2-----2-2-------|----------------|----------------|
E|----------------|----------------|----------------|----------------|

Chorus: (x4)

G|----------------|----------------|----------------|----------------|
D|----------------|----------------|2-2-2-2-2-2-2-2-|2-2-2-2-2-4-4-4-|
A|2-2-2-2-2-2-2-2-|2-2-2-2-2-4-4-4-|----------------|----------------|
E|----------------|----------------|----------------|----------------|

Break: Intro (x2)

Verse: (x4)

Chorus: (x8)



| /  slide up
| \  slide down
| h  hammer-on
| p  pull-off
| ~  vibrato
| +  harmonic
| x  Mute note
            
Submit corrections


        The Fog Rose High lessons Hard to play? Try these video lessons and learn fast The Fog Rose High lessons
        
↑ Back to top | Tablatures and chords for acoustic guitar and electric guitar, ukulele, drums are parodies/interpretations of the original songs. You may use it for private study, scholarship, research or language learning purposes only