» » »

Craft Spells - Ramona Bass

Artists:  A B C D E F G H I J K L M N O P Q R S T U V W X Y Z # 

Ramona Bass

(ver. 1) Click to play this song!
Craft Spells
 Rating:
3.8/5 (21 vote)

 Ramona  lessons Tabs too difficult? Try these video lessons and learn fast
 
                INTRO/CHORUS:
G|-------------------------------|------------------|
D|------5-7--10p9---7--5-7--10p9-|-7-775--7-7-77-77-|
A|-7-7---------------------------|------------------|
E|-------------------------------|------------------| [x4]

VERSE: [x2]
G|-14---14-14--------|------------------|---------12----------|-----------------------|
D|-------------12-14-|-14---14-14-12-10-|-14-14------14-12-10-|-14-12-10----14-12-10--|
A|-------------------|------------------|---------------------|----------12-----------|
E|-------------------|------------------|---------------------|-----------------------|

PRE-CHORUS:
G|-------------------------|
D|-12-12----14-14----15----|
A|-------------------------|
E|-------------------------| [x2]

Repeat CHORUS [x4]
Repeat VERSE [x5]
Repeat PRE-CHORUS [x4]
Repeat CHORUS [x4]            
Submit corrections


        Ramona  lessons Hard to play? Try these video lessons and learn fast Ramona  lessons
        
↑ Back to top | Tablatures and chords for acoustic guitar and electric guitar, ukulele, drums are parodies/interpretations of the original songs. You may use it for private study, scholarship, research or language learning purposes only