» » »

Craft Spells - For The Ages Bass

Artists:  A B C D E F G H I J K L M N O P Q R S T U V W X Y Z # 

For The Ages Bass

(ver. 1) Click to play this song!
Craft Spells
 Rating:
4/5 (4 votes)

 For The Ages lessons Tabs too difficult? Try these video lessons and learn fast
 
                -----------------------------------------------------------------
For the Ages - Craft Spells
-----------------------------------------------------------------
Tuning: Standard

Verse: (x4)

G|----------------|----------------|
D|----------------|----------------|
A|-----------7--7-|----------------|
E|5--5--5---5----7|--7--77--77-0-0-| 

Break: (x4)

G|----------------|----------------|
D|----------------|----------------|
A|-----------4-444|-----------7-777|
E|5-5-5-5-5-5-----|7-7-7-7-7-7-----|

Verse:  (x6)



| /  slide up
| \  slide down
| h  hammer-on
| p  pull-off
| ~  vibrato
| +  harmonic
| x  Mute note
            
Submit corrections


        For The Ages lessons Hard to play? Try these video lessons and learn fast For The Ages lessons
        
↑ Back to top | Tablatures and chords for acoustic guitar and electric guitar, ukulele, drums are parodies/interpretations of the original songs. You may use it for private study, scholarship, research or language learning purposes only