Home » C » Cover Me Quick »

Cover Me Quick - Tanya Tanya Tabs

Artists:  A B C D E F G H I J K L M N O P Q R S T U V W X Y Z # 

Tanya Tanya Tabs

(ver. 1) Click to play this song!
Cover Me Quick

For any comments and Suggestion:



Intro: (Bass first)

G-----------------------------------------------------|
D-----------------------------------------------------|
A----2h1-2h1-1h2-2h1-2h1-1h2--2h1-2h1-1h2-------------|
E-(0)-------------------------------------5h4-5h4-4h5-|

Guitar 1:

e--4*-----|
b--4*-----|
g---------|

Guitar 2:

e------------------------------|
b------------------------------|
g-(4444)-----------------------|
D-44444--44444---66666---77777-|
A-22222--44444---66666---77777-|
E--------22222---44444---55555-|

Verse:

Pilit mong....
e------------------------------|
b------------------------------|
g-(4444)-----------------------|
D-44444--44444---66666---77777-|
A-22222--44444---66666---77777-|
E--------22222---44444---55555-|

Chorus:

e------------------------------|
b------------------------------|
g-(4444)-----------------------|
D-44444--44444---66666---77777-|
A-22222--44444---66666---77777-|
E--------22222---44444---55555-|

Tanya-tanya..
e------------------------------|
b------------------------------|
g-(4444)-----------------------|
D-44444--44444---66666---77777-|
A-22222--44444---66666---77777-|
E--------22222---44444---55555-|

e-----------------------|
b-----------------------|
g-----------------------|
D---7777-xxx-7777-------|
A---7777-xxx-7777-------|
E---5555-xxx-5555-------|

Verse:

Lagi kang..
e------------------------------|
b------------------------------|
g-(4444)-----------------------|
D-44444--44444---66666---77777-|
A-22222--44444---66666---77777-|
E--------22222---44444---55555-|

Chorus:

e------------------------------|
b------------------------------|
g-(4444)-----------------------|
D-44444--44444---66666---77777-|
A-22222--44444---66666---77777-|
E--------22222---44444---55555-|

Tanya-tanya..
e------------------------------|
b------------------------------|
g-(4444)-----------------------|
D-44444--44444---66666---77777-|
A-22222--44444---66666---77777-|
E--------22222---44444---55555-|


Adlib:

Guitar 1:

e-----------------------------------------|
b-----------------------------------------|
g--444-666--888--333-44-66----------------|
D--xxx-xxx--xxx--xxx-xx-xx---666-777--999-|
A--222-444--666--111-22-44---666-777--999-|
E----------------------------444-555--777-|

e----------------------------------------------------------|
b----------------------------------------------------------|
g--444-666--888--333-44-66---------------------------------|
D--xxx-xxx--xxx--xxx-xx-xx---666-777--999--7777-xxx--7777--|
A--222-444--666--111-22-44---666-777--999--7777-xxx--7777--|
E----------------------------444-555--777--5555-xxx--5555--|

Intro: 

G-----------------------------------------------------|
D-----------------------------------------------------|
A----2h1-2h1-1h2-2h1-2h1-1h2--2h1-2h1-1h2-------------|
E-(0)-------------------------------------5h4-5h4-4h5-|

Guitar 2:

e----------------|
b----------------|
g-4~-------------|
D-4~--4~--6~-7~--|
A-2~--4~--6~-7~--|
E-----2~--4~-5~--|

Chorus:

e------------------------------|
b------------------------------|
g-(4444)-----------------------|
D-44444--44444---66666---77777-|
A-22222--44444---66666---77777-|
E--------22222---44444---55555-|

Tanya-tanya..
e------------------------------|
b------------------------------|
g-(4444)-----------------------|
D-44444--44444---66666---77777-|
A-22222--44444---66666---77777-|
E--------22222---44444---55555-|

e------------------------------|
b------------------------------|
g-(4444)-----------------------|
D-44444--44444---66666---77777-|
A-22222--44444---66666---77777-|
E--------22222---44444---55555-|

Tanya-tanya..
e------------------------------|
b------------------------------|
g-(4444)-----------------------|
D-44444--44444---66666---77777-|
A-22222--44444---66666---77777-|
E--------22222---44444---55555-|
            
Submit corrections

↑ Back to top | Tablatures and chords for acoustic guitar and electric guitar, ukulele, drums are parodies/interpretations of the original songs. You may use it for private study, scholarship, research or language learning purposes only