Home » C » Counting Crows »

Counting Crows - Round Here Bass

Artists:  A B C D E F G H I J K L M N O P Q R S T U V W X Y Z # 

Round Here Bass

(Version #1)
Counting Crows
Counting Crows - "Round Here"
Played on the album 'August and Everything After'

(come in at 1:12)
Verse
G|-------------------------------------------|
D|----------------------------------5-3-1----|
A|--\3----3-3---5-3-1------------7-----------|	
E|------33---------------0-----5-------------|

Chorus
G|-------------------------------------------------------|
D|------------------------------------------5---5--------|
A|--3---3--3-0-3---5---55-0---------3-5-3---------7----5-|
E|--------3-----------------3---0------------------------|

Bridge
G|----------|------------------|    |---------|
D|----------|:-----------(5)--:|    |---------|
A|-----5----|:----------------:| x7 |-3---5---|
E|--5-----3-|--5-5--3-5-3-0----|    |---------|

Verse
Chorus

try improvising...improvising is good

¡Buen provecho!
            
Submit corrections

↑ Back to top | Tablatures and chords for acoustic guitar and electric guitar, ukulele, drums are parodies/interpretations of the original songs. You may use it for private study, scholarship, research or language learning purposes only