» » »

Cotton Jones - I Am The Changer Chords

Artists:  A B C D E F G H I J K L M N O P Q R S T U V W X Y Z # 

I Am The Changer Chords

(ver. 1) Click to play this song!
Cotton Jones
 Rating:
4.3/5 (13 votes)

 I Am The Changer lessons Tabs too difficult? Try these video lessons and learn fast
 
                
[Intro]

e|---------------------------------------------------------------------------|
B|---------------------------------------------------------------------------|
G|---------------------------------------------------------------------------|
D|-------2p0--2p0------------------------------------------------------------|  
A|--3~~~~---3-----3p0--------------------------------------------------------|
E|-------------------3~~~~---------------------------------------------------|

e|---------------------------------------------------------------------------|
B|---------------------------------------------------------------------------|
G|---------------------------------------------------------------------------|
D|-------2p0---2p0-----------------------------------------------------------|  X3
A|----3~~~~---3-----3p0------------------------------------------------------|
E|-3h5-----------------3~~~~-------------------------------------------------|

e|---------------------------------------------------------------------------|
B|---------------------------------------------------------------------------|
G|---------------------------------------------------------------------------|
D|-------2p0---2p0-----2~~~~~~-----------------------------------------------|
A|----3~~~~---3-----3p0------------------------------------------------------|
E|-3h5-----------------------------------------------------------------------|

e|---------------------------------------------------------------------------|
B|---------------------------------------------------------------------------|
G|---------------------------------------------------------------------------|
D|-------2p0---2p0--------------------2p0---2p0-----2~~~~2b2#b2~~~-----------|
A|----3~~~~---3-----3p0------------3~~~~---3-----3p0-------------------------|
E|-3h5-----------------3~~~~----3h5-------------------~----------------------|


e|---------------------------------------------------------------------------|
B|---------------------------------------------------------------------------|
G|---------------------------------------------------------------------------|
D|---------------------------------------------------------------------------|
A|------3-5-5/7-5------------------3-5-5/7-5-3-------------------------------|
E|--3-5-------------------------3-5------------------------------------------|


[Verse 1]

C

               F
Everything has turned around
      Em
I was standing by the passing train
         Dm
Might've coughed in the rain
            C
Dropped a dollar down the gutter drain
               F
Everything has turned around
     Em
Been waiting for a little change
            Dm
And when it finally came
        C
I just waited for another
C                   Dm
Waited for another

[Chorus]
Dm               G          Dm
You know I'm the changer
Dm       G
The rearranger
G                     F
I'm always a stranger
F         Em
And a liar
Em                   Dm
Got a tongue on fire
Dm
I ought to cut it off
Em
I ought to cut it off
Em
And when I do, when I do
Em        F                Em
I'm gonna let you know
Em                Dm            Em
Gonna gonna gonna let you know

[Verse 2]
Em                    F
'Cause everything has turned around
        Em
Now I'm sleeping in a garden bed
          Dm
Trying to clear my head
C
Sitting, waiting to be fed
C                     F
'Cause everything has turned around
    Em
Two ears above the budding grass
        Dm
Let the hours pass
C
Always gonna catch the next one
C                         Dm
Gonna catch the next one

[Chorus Var]
Dm             G        Dm
You know I'm a waiter
Dm  G
The hesitater
G        
I will get to it later
F               Em
But I'm a liar
Em                    Dm
Got a tongue on fire
Dm
Ought to cut it off
Em                    Dm
Ought to cut it off

[Chorus/Outro]
Dm               G         Dm
You know I'm the changer
Dm    G
The rearranger
G                     F      G
I'm always a stranger
G                     F      G
I'm always a stranger
G                     F
I'm always a stranger
F          Em
And a liar
Em                    Dm
Got a tongue on fire
Dm
Ought to cut it off
Em
Ought to cut it off
Em
And when I do, when I do
          F             Em
I'm gonna let you know
                       F             Em
Then I think I'm gonna let you know
(Got a tongue on fire)
                       F
Then I think I'm gonna let you know
(I'm a liar, got a tongue on fire)
Dm               G
You know I'm the changer
Dm    G
The rearranger
G                     F
I'm always a stranger
               G        Dm
You know I'm a waiter
Dm     G
A   hesitater
G        
I will get to it later
            
Submit corrections


        I Am The Changer lessons Hard to play? Try these video lessons and learn fast I Am The Changer lessons
        
↑ Back to top | Tablatures and chords for acoustic guitar and electric guitar, ukulele, drums are parodies/interpretations of the original songs. You may use it for private study, scholarship, research or language learning purposes only