» » »

Corrosion Of Conformity - World On Fire Tabs

Artists:  A B C D E F G H I J K L M N O P Q R S T U V W X Y Z # 

World On Fire Tabs

(ver. 1) Click to play this song!
Corrosion Of Conformity
 Rating:
4.3/5 (9 votes)

 World On Fire  lessons Tabs too difficult? Try these video lessons and learn fast
 
                Hell starts in 3:05 track..

d|-------------------------------------------------------------------------|
A|-------------------------------------------------------------------------|
F|--12--12h14/11/12-12h14/11/12-12h14/11/16--------------------------------|
C|-------------------------------------------------------------------------|
G|-------------------------------------------------------------------------|
C|-------------------------------------------------------------------------|

d|-------------------------------------------------------------------------|
A|-------------------------------------------------------------------------|
F|--16p14/12-14p12/11-12p11/9-11p9/8-9p8/5-8p5/2/4--2b4-2b4-8~~------------|
C|-------------------------------------------------------------------------|
G|-------------------------------------------------------------------------|
C|-------------------------------------------------------------------------|

d|---19--------19--------19--------19-------19-----19----------------------|
A|------20-17-----20-17-----20 17----20-17----20-17--20-17-----------------|
F|-------------------------------------------------------------------------|
C|-------------------------------------------------------------------------|
G|-------------------------------------------------------------------------|
C|-------------------------------------------------------------------------|

d|---19--------19--------19--------19--------19-----19----19---------------|
A|---------20--------20--------20--------20------20----20------------------|
F|------17--------17--------17--------17-------17----17--------------------|
C|-------------------------------------------------------------------------|
G|-------------------------------------------------------------------------|
C|-------------------------------------------------------------------------|

d|---20-------20--------20--------20---------20-----20---------------------|
A|------22--19----22--19----22--19----22--19---22-19--22-19----------------|
F|-------------------------------------------------------------------------|
C|-------------------------------------------------------------------------|
G|-------------------------------------------------------------------------|
C|-------------------------------------------------------------------------|

d|---19-------19-------19-------19-------19-----19-------------------------|
A|------17-16----17-16----17-16----17-16---17-16--17-16--------------------|
F|-------------------------------------------------------------------------|
C|-------------------------------------------------------------------------|
G|-------------------------------------------------------------------------|
C|-------------------------------------------------------------------------|

d|---19~~---22b24---19-20-22-20-19/17/20--19~-17~--/0----------------------|
A|-------------------------------------------------------------------------|
F|-------------------------------------------------------------------------|
C|-------------------------------------------------------------------------|
G|-------------------------------------------------------------------------|
C|-------------------------------------------------------------------------|

d|-------------------------------------------------------------------------|
A|--------------------------------------------------------------16-16-16-16|
F|--14-14-14-14-14-14-14-14-16-16-16-16-16-16-17-17-17-17-17-17------------|
C|-------------------------------------------------------------------------|
G|-------------------------------------------------------------------------|
C|-------------------------------------------------------------------------|

d|-------------------------------------------------------------------------|
A|-------------------------------------------------------------------------|
F|-----------------------16-16-16-16-17-17-17-17-19-19-19-19-19------------|
C|--16-16-16-16-16-16-16---------------------------------------------------|
G|-------------------------------------------------------------------------|
C|-------------------------------------------------------------------------|


[TAPPING PART]

d|--h19p15p12-h19p15p12-h19p15p12-h19p15p12-h19p15p12-h19p15p12-h19p15p12--|
A|-------------------------------------------------------------------------|
F|-------------------------------------------------------------------------|
C|-------------------------------------------------------------------------|
G|-------------------------------------------------------------------------|
C|-------------------------------------------------------------------------|


d|--h20p17p14-h20p17p14-h20p17p14-h20p17p14-h20p17p14-h20p17p14-h20p17p14--|
A|-------------------------------------------------------------------------|
F|-------------------------------------------------------------------------|
C|-------------------------------------------------------------------------|
G|-------------------------------------------------------------------------|
C|-------------------------------------------------------------------------|

d|--h17p14p11-h17p14p11-h17p14p11-h17p14p11-h17p14p11-h17p14p11-h17p14p11--|
A|-------------------------------------------------------------------------|
F|-------------------------------------------------------------------------|
C|-------------------------------------------------------------------------|
G|-------------------------------------------------------------------------|
C|-------------------------------------------------------------------------|            
Submit corrections


        World On Fire  lessons Hard to play? Try these video lessons and learn fast World On Fire  lessons
        
↑ Back to top | Tablatures and chords for acoustic guitar and electric guitar, ukulele, drums are parodies/interpretations of the original songs. You may use it for private study, scholarship, research or language learning purposes only