» » »

Corrosion Of Conformity - Seven Days Tabs

Artists:  A B C D E F G H I J K L M N O P Q R S T U V W X Y Z # 

Seven Days Tabs

(ver. 2) Click to play this song!
Corrosion Of Conformity
 Rating:
4.3/5 (12 votes)

 Seven Days lessons Tabs too difficult? Try these video lessons and learn fast
 
                [Intro and Verse and Chorus] [Woody]

d|---------------------------------------------------------------------------| X2
A|---------------------------------------------------------------------------|
F|---------------------------------------------------------------------------|
C|--0-0/3/5/10-10-10-5p3-0-0--0/3/5/10-10-10-5-------------------------------|
G|--0-0/3/5/10-10-10-5p3-0-0--0/3/5/10-10-10-5-------------------------------|
C|--0-0/3/5/10-10-10-5p3-0-0--0/3/5/10-10-10-5-------------------------------|

[Pepper]

d|---------------------------------------------------------------------------|
A|---------------------------------------------------------------------------|
F|---------------------------------------------------------------------------|
C|---------------------------------------------------------------------------|
G|---------<3>-3-3-----------------------------------------------------------|
C|-0-0/3/5---------5p3-------------------------------------------------------|

[LEAD PART PRE-CHORUS] [Woody]

d|---------------------------------------------------------------------------|
A|---------------------------------------------------------------------------|
F|-----------------------10-10-----------------------------------------------|
C|--12-12-12-/-10-10--10-------10h12-----------------------------------------|
G|-----------------------------------13-10-----------------------------------|
C|---------------------------------------------------------------------------|


[BACKGROUND GUITAR TO LEAD UPPER] [Pepper]

d|---------------------------------------------------------------------------|
A|---------------------------------------------------------------------------|
F|---------------------------------------------------------------------------|
C|--3/5-5-5-5/8-8-8-8/3-3-3-3/5-5--------------------------------------------|
G|--3/5-5-5-5/8-8-8-8/3-3-3-3/5-5--------------------------------------------|
C|--3/5-5-5-5/8-8-8-8/3-3-3-3/5-5--------------------------------------------|            
Submit corrections


        Seven Days lessons Hard to play? Try these video lessons and learn fast Seven Days lessons
        
↑ Back to top | Tablatures and chords for acoustic guitar and electric guitar, ukulele, drums are parodies/interpretations of the original songs. You may use it for private study, scholarship, research or language learning purposes only