» » »

Cornershop - Brimful Of Asha Tabs

Artists:  A B C D E F G H I J K L M N O P Q R S T U V W X Y Z # 

Brimful Of Asha Tabs

(ver. 1) Click to play this song!
Cornershop
 Rating:
4/5 (15 votes)

 Brimful Of Asha lessons Tabs too difficult? Try these video lessons and learn fast
 
                -------------------------------------------------------------------------------
-------------------------------------------------------------------------------

Seeing as none of the other tabs are right, i'll throw my own one up... It's correct even if I say so myself


Tuning: standard


Intro/Verse:

e|---------------------------------------|
B|---------------------------------------|
G|------------------------9-x--7--7-7-x--|
D|--7-7-7-x--7-7-7-x-5-x--9-x--7--7-7-x--|
A|--7-7-7-x--7-7-7-x-5-x--7-x--5--5-5-x--|
E|--5-5-5-x--5-5-5-x-3-x-----------------|


play this bit every time before it goes into 'brimful of asha....'
e|--------------------------------------|
B|--------------------------------------|
G|-----------7-7-7-x--------------------|
D|--7-7-7-x--7-7-7-x--7-7-7-x--7-7-7-x--|
A|--7-7-7-x--5-5-5-x--7-7-7-x--7-7-7-x--|
E|--5-5-5-x-----------5-5-5-x--5-5-5-x--|


Chorus:

e|--------------------------------------|
B|--------------------------------------|
G|-----------7-7-7-x-----------7-7-7-x--|
D|--7-7-7-x--7-7-7-x--7-7-7-x--7-7-7-x--| x3
A|--7-7-7-x--5-5-5-x--7-7-7-x--5-5-5-x--|
E|--5-5-5-x-----------5-5-5-x-----------|


| /  slide up
| \  slide down
| h  hammer-on
| p  pull-off
| ~  vibrato
| +  harmonic
| x  Mute note
===============================================================================
            
Submit corrections


        Brimful Of Asha lessons Hard to play? Try these video lessons and learn fast Brimful Of Asha lessons
        
↑ Back to top | Tablatures and chords for acoustic guitar and electric guitar, ukulele, drums are parodies/interpretations of the original songs. You may use it for private study, scholarship, research or language learning purposes only