Home » C » Cornelis Vreeswijk »

Cornelis Vreeswijk - Somliga Går Med Trasiga Skor Tabs

Artists:  A B C D E F G H I J K L M N O P Q R S T U V W X Y Z # 

Somliga Går Med Trasiga Skor Tabs

(ver. 2) Click to play this song!
Cornelis Vreeswijk
 Rating:
4.4/5 (11 votes)
                [Intro]
  Am                 E7             Am                E7
e|-----0-----------|--0-----------|-----0-----------|--0------------|
B|-----1-----3-----|--0--3--1--0--|-----1-----3-----|--0--3--1--0---|
G|-----------------|--1-----------|-----------------|--1------------|
D|-----2--------2--|-----2-----2--|-----2--------2--|-----2-----2---|
A|--0--------------|--------------|--0--------------|---------------|
E|--------0--------|--0-----0-----|--------0--------|--0-----0------|


[Verse 1]
   Am                Am                G                Am
e|-----------------|-----------------|-----------------|-------0---------|
B|--1-----------1--|-----1-----------|-----0-----------|-------1----3----|
G|--2------2----2--|-----2-----2-----|-----0-----0-----|-----------------|
D|-----2--------2--|-----2--------2--|-----0--------0--|----2----------2-|
A|--0--------------|--0--------------|-----------------|-0---------------|
E|-----------0-----|--------0--------|--3-----3--------|----------0------|
       So-------mliga   går   med    trasiga    skor
  Am                 G                 C                 E
e|--0--------------|-----3-----------|-----0-----------|---0-------------|
B|--1-----1--------|-----0-----0-----|-----1-----3-----|---0---3--1---0--|
G|-----------------|-----------------|-----------------|-----------------|
D|-----2--------2--|-----0--------0--|-----2--------2--|-------2------2--|
A|--0--------------|-----------------|--3--------------|-----------------|
E|-----------0-----|--3-----3--------|--------3--------|---0------0------|
       Säg   vad      bero---r   det       på

  Am                 Am                G                 Em
e|-------------0---|-----------------|-----------------|-----------0-----|
B|-1-----------1---|-----1-----------|--------0--------|-----0-----------|
G|-------2---------|-----2-----2-----|------------0----|-----0-----------|
D|----2--------2---|-----2--------2--|-----0--------0--|-----2--------2--|
A|-0---------------|--0--------------|-----------------|-----------------|
E|----------0------|--------0--------|--3-------3------|--0-----0--------|
       Gud   fader     so----m      i        himmelen bor
   Am               G                 Am                Am
e|-----------------|-----------------|-----0-----------|-----0-----------|
B|--1--------------|-----0-----------|-----1-----3-----|-----1-----3-----|
G|--------2--------|-----0-----0-----|-----------------|-----------------|
D|-----2--------2--|-----0--------0--|-----2-----------|-----2-------2---|
A|--0--------------|-----------------|--0-----------2--|--0--------------|
E|-----------0-----|--3-----3--------|--------0--------|--------0--------|
     kanske    vill   ha   det   så

[Verse 2]

e|-----0-----------|-----0-----------|-----------------|--0--------------|
B|-----1-----1-----|-----1-----1-----|-----3-----3-----|-----3--1--0-----|
G|-----------------|-----------------|-----0-----------|-----------------|
D|-----2--------2--|-----2--------2--|-----0--------0--|-----2--------2--|
A|--0--------------|--0--------------|-----------------|--0--------------|
E|--------0--------|--------0--------|--3-----3--------|--------0--------|
    Gud    fader       som    i        himmelen   bor

e|-----------------|-----3-----------|-0-----------0---|--0--------------|
B|--1--------------|-----0-----0-----|-1-----3---------|--0-----3-----0--|
G|--------2--------|-----------------|-----------------|--------------1--|
D|-----2--------2--|-----0--------0--|----2----------2-|-----2--------2--|
A|--0--------------|-----------------|-3---------------|-----------------|
E|-----------0-----|--3-----3--------|----------3------|--0--------0-----|
    blundar och          sover        sött

e|-----------------|-----------------|-----------------|-----0-----------|
B|--------1--------|--0h1------------|--0-----------0--|-----0-----0-----|
G|--------------2--|----------2------|--0-----0--------|-----------------|
D|-----2---------2-|-------2-------2-|-----0---------0-|-----2--------2--|
A|--0--------------|--0--------------|-----------------|-----------------|
E|-----------0-----|-------------0---|--3--------3-----|--0-----0--------|
   Vem bryr sig  om ett par             trasiga skor
e|-----------------|-----------------|-----0-----------|-----0-----------|
B|-----1-----------|--0--------------|-----1-----3-----|-----1-----3-----|
G|-----------2-----|--------0--------|-----------------|-----------------|
D|-----2--------2--|-----0--------0--|-----2--------2--|-----2--------2--|
A|--0--------------|-----------------|--0--------------|--0--------------|
E|--------0--------|--3--------3-----|--------0--------|--------0--------|
    när  man  är gammal  och trött?

            
Submit corrections

↑ Back to top | Tablatures and chords for acoustic guitar and electric guitar, ukulele, drums are parodies/interpretations of the original songs. You may use it for private study, scholarship, research or language learning purposes only