Home » C » Coral »

Coral - Put The Sun Back Tabs

Artists:  A B C D E F G H I J K L M N O P Q R S T U V W X Y Z # 

Put The Sun Back Tabs

(ver. 2) Click to play this song!
Coral
intro:
e|--------------------|
B|----5h7p5-----------|
G|---------6---8--6---|
D|---6-------/9--7----|
A|-/4-----------------|
E|--------------------|

the intro and verses go something like this but try mess around with it (arpeggiate the chords etc)
   E            B                 C#m            A
e|-----0------|----7h9p7--------|---4----------|----7--5---|
B|--------0---|---7-----7-------|---5---------5|--------5--|
G|------------|--8-------8h9p8--|/6-6-----4-6--|---------6-| (once for intro
D|----6------6|/9-------------9\|/6-6--4h6-----|---7-------|   and 3 times 
A|--/7--------|-----------------|--------------|0-7--------|  for each verse)
E|-0----------|-----------------|--------------|-----------|

chorus:
   E                B                A                E
e|-4---------4----|-7-------7------|-5-------5------|-4---------| 
B|---5------------|-----7-------7--|-----5-------5--|-------5---|
      we've got to| put,        the| sun back in our| hearts..

at the end of the chorus you hear..
   B
e|-------------|
B|-------------|
G|--------4----|
D|-----4-6-6-4-|
A|-2-/6--------|
E|-------------|

Bridge:
A                         Am
  Down the cinder path and through the hedge,
C#m
  Climbing up to the window ledge,
F#m
  Throwing lockets to make a scene,
B
  I can’t explain, you know what I mean

solo:
(play verse chords twice and chorus chords once respectively)

e|--------------------------------------------------------|
B|--------------------------------------------------------|
G|---------------------------4------4-----------2-2-2-----|
D|------------2---------4-4h6-------4h6p4-----------------|
A|---------2-4--2--2-4/6-------4----------7\--------------|
E|-0--0-2/4---------------------------------/5---5-4-0----|

e|-------------------------------------------------------------------|
B|----------------------------------------------7--5-----------------|
G|--------------------------11-13p11-----11\-/8-8--6---8---6---------|
D|-------9-11p9--9---9-11/13--------13-11-----------/9-9---7-7-6--6--|
A|-7-9/11------11------------------------------------------------7---|
E|-------------------------------------------------------------------|

e|---------------------------------------0-12------------|
B|--------------------5/14--14--12--14---------14--12\9--|
G|--------11p9----11-------------------------------------|
D|-------9----11-9---------------------------------------|
A|-7-9/11------------------------------------------------|
E|-------------------------------------------------------|

outro:
   E                B              A             A    C#m|F#m (end on E 2nd time)
e|----7----------7|----7---7h9p7-|----4-------4|----5-4--5-2-|x2(end on open top e string 2nd time)
B|-9---9--7h9p7---|-7---7-------7|-5---7-4h5h7-|-5-----------|

Key:            |  Order of song..
/ = slide up    |  intro
\ = slide down  |  verse 1
h = hammer-on   |  chorus
p = pull-off    |  verse 2
                |  chorus
                |  bridge
                |  solo
                |  verse 3
                |  chorus
                |  outro

and that's just about all of it!
            
Submit corrections

↑ Back to top | Tablatures and chords for acoustic guitar and electric guitar, ukulele, drums are parodies/interpretations of the original songs. You may use it for private study, scholarship, research or language learning purposes only