Home » C » Coral »

Coral - Dreaming Of You Tabs

Artists:  A B C D E F G H I J K L M N O P Q R S T U V W X Y Z # 

Dreaming Of You Tabs

(ver. 3) Click to play this song!
Coral
intro riff/ main riff

Am, F

|-5--1--
|-5--1--
|-5--2--
|-7--3--
|-7--3--
|-5--1--  All on the off beats


chorus

C, G, F, Am, F, Am, F, E

|-0--3--1--0--1--0--1--0-
|-1--3--1--1--1--1--1--0-
|-0--0--2--2--2--2--2--1-
|-2--0--3--2--3--2--3--2-
|-3--2--3--0--3--0--3--2-
|----3--1-----1-----1--0-


  Leads into solo

e|-------------------------------------------------------------------
B|-1-----------------------------------------------------------------
G|-2-----2-----------------------------------------------------------
D|-2-etc-3-etc-------------------------------------------------------
A|-0-----3-----------------------------------------------------------
E|-------1-----------------------------------------------------------
  
Solo
e------------------------------------------------------------------
b------------------------------------------------------------------
g---4-5-5s7-5-4--5-5---------------4-5-5s7-5-4h5p4---5-5---5-----7-
d-7-------------7-----5---5---5--7-----------------7-----7---7s9---
a-------------------7---7---7--------------------------------------
e------------------------------------------------------------------

e---8-------------------------------------------0--------------------
b----5-8-/5-(8)-/5--------5-----3-----------------1-----1-----------1
g-5---------------7-5-4-----3h4---3h4-3h4-2-0-------0h2--------------
d-----------------------5---------------------3-----------3-3-2-0-2--
a-----------------------------------------------------------------0--
e--------------------------------------------------------------------

e---------------------0--------------------------------8---7-
b-------3-1-----------------1-----------------1-----1--10--9-
g-----0-----------5-----0h2---0h2p0-----0-0h2----------10--9-
d-0h2-------2-2s5---3---------------3-2---------0h2----10--9-
a------------------------------------------------------8---7-
e------------------------------------------------------------

This tab is right, apart from not having the timings for the chords. 
But basically you play the intro chords 4 times each then back to 
the first one and same with the chorus chords. All on the off beat.
            
Submit corrections

↑ Back to top | Tablatures and chords for acoustic guitar and electric guitar, ukulele, drums are parodies/interpretations of the original songs. You may use it for private study, scholarship, research or language learning purposes only