» » »

Constellation - Adam's Family Tabs

Artists:  A B C D E F G H I J K L M N O P Q R S T U V W X Y Z # 

Adam's Family Tabs

(ver. 1) Click to play this song!
Constellation
 Rating:
4/5 (4 votes)
                (Theme)
	              Adams Family Theme - Constellation


e|--------------------------------------------------------------|
B|--------------------------------------------------------------|
G|--------------------------------------------------------------|
D|--------------------------------------------------------------|
A|-----0-1-------0-2-3-----0-2-3-----0-2-3-------0-1------------|
E|-1-3---------3---------3---------3---------1-3----------------|

e|--------------------------------------------------------------|
B|-----3--------1-----------1------------------3-------1--------|
G|---3---3-0------------1-2---2-----3--------3---3-0------------|
D|-3----------1-----------------3-0--------3---------1----------|
A|--------------------------------------------------------------|
E|--------------------------------------------------------------|

e|--------------------------------------------------------------|
B|--------------------------------------------------------------|
G|-3-2---0-2-3--------------------------------------------------|
D|-----3--------------------------------------------------------|
A|--------------------------------------------------------------|
E|--------------------------------------------------------------|
            
Submit corrections

↑ Back to top | Tablatures and chords for acoustic guitar and electric guitar, ukulele, drums are parodies/interpretations of the original songs. You may use it for private study, scholarship, research or language learning purposes only