Home » C » Conquest »

Conquest - Sunset Chords

Artists:  A B C D E F G H I J K L M N O P Q R S T U V W X Y Z # 

Sunset Chords

(ver. 1) Click to play this song!
Conquest
Intro 4x: Bm  G  A
Solo:

                             Bm                         G           A
E|----------------------------------------------------------------------|
B|----------3--2----------------------------3--2------------------------|
G|-------------------4---2--4~~-------------------4---2-4~~--------2~~--|
D|----------------------------------------------------------------------|
A|----------------------------------------------------------------------|
E|----------------------------------------------------------------------|


                      Bm                                      G        
        A
E|------------------------------------------------------------3~---2------------------------------------------|
B|------3-2------------------------------------3----------------------3--------5~~--------------2~~-----------|
G|--------------4--2-4~~-------------------4------4------------------------4----------------4-----------------|
D|------------------------------------------------------------------------------------------------------------|
A|------------------------------------------------------------------------------------------------------------|
E|------------------------------------------------------------------------------------------------------------|

Bm              G             A                Bm
Sun is dropping, I touch it with my fingertips
Bm             G           A             D
Like the heaven is pouring blood upon my lips
D                C              G             A#
I have closed my eyes, but still I see the skies

( Bm  G  A )  (2x)

Bm       G         A                Bm
Verifying its promises to set me free
Bm               G              A                D
Wind  is  crying  and  quietly  mourning  over  me
             C          G              A#
I forgot my home the place where I was born

Dm  Am         A#         F
Remember your glance from far away
Dm  Am         A#    F    G      Dm
So  desperate  gaze  now  I  pray
Dm  Am         A#         F         G
So tired and amazed I'll walk this way

Solo 2x: Bm  G  A

D             C          G              A#
I forgot my home the place where I was born

Dm  Am           A#        F       Dm
Remember your glance from far away
Dm  Am           A#  F   G   Dm
So desperate  gaze  now  I  pray
Dm  Am        A#          F             G
So tired and amazed I'll walk this way

Em   Bm              C      G       Em
In   silence you voice whispers to me
Em   Bm               C       G    D  Em
So   long I  was  blind  and  now  I  see
Em  Bm             C    G        D
A  cold desert down is calling me

Bm       G          A                  Bm
Verifying its promisses to set me free

                           G    A
Wind is mourning over meeeeee...            
Submit corrections

↑ Back to top | Tablatures and chords for acoustic guitar and electric guitar, ukulele, drums are parodies/interpretations of the original songs. You may use it for private study, scholarship, research or language learning purposes only