Home » C » Connells »

Connells - New Boy Tabs

Artists:  A B C D E F G H I J K L M N O P Q R S T U V W X Y Z # 

New Boy Tabs

(ver. 1) Click to play this song!
Connells
 Rating:
4.3/5 (9 votes)
                Intro]
e|---5-7-9-7-5-4---5-4-------------------------------------------------------|
B|---------------5-----5-----5-------2---------------------------------------|
G|-----------------------6-7---7-6---2---------------------------------------|
D|---------------------------------7-2---------------------------------------|
A|---------------------------------------------------------------------------|
E|---------------------------------------------------------------------------|

[Verse]
   A          D                A                 D
Sometimes, i get the feeling things won't fall apart,

e|-5-------------------------------------------------------------------------|
B|---7-5-2-------------------------------------------------------------------|
G|-------2-------------------------------------------------------------------|
D|-------2-------------------------------------------------------------------|
A|---------------------------------------------------------------------------|
E|---------------------------------------------------------------------------|
    A         D                  A
Sometimes i think it's gone too far.
    A         D                A                 D
Sometimes, i get the feeling things seem pretty nice,

e|-5-------------------------------------------------------------------------|
B|---7-5-2-------------------------------------------------------------------|
G|-------2-------------------------------------------------------------------|
D|-------2-------------------------------------------------------------------|
A|---------------------------------------------------------------------------|
E|---------------------------------------------------------------------------|
    A                     D                   A            
Then again, sometimes i'd like to leave you twice...
    A       D             A
Once we decide upon it, we wonn't fall apart.

e|-5-------------------------------------------------------------------------|
B|---7-5-2-------------------------------------------------------------------|
G|-------2-------------------------------------------------------------------|
D|-------2-------------------------------------------------------------------|
A|---------------------------------------------------------------------------|
E|---------------------------------------------------------------------------|
    A          D                  A                E
This time is think it's gone too far
         D                   A                               E
And you get where you can decide, don't ask any other,
         D
And you get where you can decide...

[Chorus]
          A
Didn't I say "sorry."
          E
Didn't I say "dear."
          F#min
Didn't I consider.
          D
Didn't I stand clear.
                 A                         E
Didn't you say "new boy get down on your knees."
            F#min                    D
Did I say "trying, I'm trying, I'm trying."            
Submit corrections

↑ Back to top | Tablatures and chords for acoustic guitar and electric guitar, ukulele, drums are parodies/interpretations of the original songs. You may use it for private study, scholarship, research or language learning purposes only