Home » C » Connan Mockasin »

Connan Mockasin - Why Are You Crying Tabs

Artists:  A B C D E F G H I J K L M N O P Q R S T U V W X Y Z # 

Why Are You Crying Tabs

(ver. 1) Click to play this song!
Connan Mockasin
[Riff 1]
 
d#|----------------10--12b13r12-10-------------------------------------|
A#|-10-10-10-10-13-----------------12-12b13r12-10-10---0--10-0--10-----|
F#|--------------------------------------------------------------------|
C#|--------------------------------------------------------------------|
G#|--------------------------------------------------------------------|
D#|--------------------------------------------------------------------|
 
d#|--------------------------------------------------------------------|
A#|-10-13--13s15--12s13--10-12s13-12s13-10-12s13-12s13-10--------------|
F#|--------------------------------------------------------------------|
C#|--------------------------------------------------------------------|
G#|--------------------------------------------------------------------|
D#|--------------------------------------------------------------------|
 
d#|------------------------------------------12b13-------------12b13---|
A#|--9s10-9s10-9s10-9s10-9s10-9s10-10-10-10--------10-10-10-10---------|
F#|--------------------------------------------------------------------|
C#|--------------------------------------------------------------------|
G#|--------------------------------------------------------------------|
D#|--------------------------------------------------------------------|
 
d#|-------12b13--|
A#|-10-10--------|
F#|--------------| x 4
C#|--------------|
G#|--------------|
D#|--------------|
 
d#|--------------------------------------------------------------------|
A#|--10-12-13-15-13s15-13-12-13---10h12-10-9--9h10-9--7--8s10----------|
F#|--------------------------------------------------------------------|
C#|--------------------------------------------------------------------|
G#|--------------------------------------------------------------------|
D#|--------------------------------------------------------------------|
 
d#|--------------------------------------------------------------------|
A#|--10-13b15-13b15r13b15-13b15-13b15r13-13-10-10-0--10----------------|
F#|--------------------------------------------------------------------|
C#|--------------------------------------------------------------------|
G#|--------------------------------------------------------------------|
D#|--------------------------------------------------------------------|
 
d#|--------------------------------------------------------------------|
A#|-10-10---13s15-15-13-13-12------------------------------------------|
F#|--------------------------------------------------------------------|
C#|--------------------------------------------------------------------|
G#|--------------------------------------------------------------------|
D#|--------------------------------------------------------------------|
 
In between Riff 1 and Riff 2, the song slows and Connan plays
the 10th fret on the B string repeatedly, before moving up to the 12th
fret on the B string.
 
[Riff 2]
 
d#|--------------------------------------------------------------------|
A#|-12s0----5-5-5-5-5-5h6--6-5-3---2h3----------------0----------------|
F#|-------------------------------------2h3---0--2--3---0h2-0-0--------|
C#|--------------------------------------------------------------------|
G#|--------------------------------------------------------------------|
D#|--------------------------------------------------------------------|
 
d#|---------------|
A#|---------------|
F#|---------------|
C#|-2h-3p-2p-0h2--| x2
G#|---------------|
D#|---------------|
 
d#|--------------------------------------------------------------------|
A#|--------------------12-11-10-8-7-6-5-3s12-3s12--3tr5----------------|
F#|--------------------------------------------------------------------|
C#|-2h-3p-2p-0h2s12----------------------------------------------------|
G#|--------------------------------------------------------------------|
D#|--------------------------------------------------------------------|
 
[Chorus]
 
d#|------------------------------------------|   |---------------------|
A#|-0--10---0--10--10--------8--0--8--0--8---|   |--8-----------8------|
F#|-------------------13---------------------|   |----10----------10---|
C#|----------------------11------------------|x2 |-------10----------9-|
G#|------------------------------------------|   |---------------------|
D#|------------------------------------------|   |---------------------|
 
d#|---------------------------------------------- ---------------------|
A#|--------------------------------------------------------------------|
F#|-----------------------------------------0h2h3----------------------|
C#|-9-7-9-5--3-3-3-3-2-2-2---0--2--3--0h2h3-------0h2h3-------0h2h3----|
G#|-----------------------------------------------------0h2h3----------|
D#|--------------------------------------------------------------------|
 
d#|---------------------------------------------------9s10-9---7-------|
A#|---------------------0--0--0-------10-10--9s10-9--------------------|
F#|---------------0h2h3------------------------------------------------|
C#|--------0h2h3-------------------------------------------------------|
G#|-0h2h3--------------------------------------------------------------|
D#|--------------------------------------------------------------------|
 
d#|-7s9--7---5h7--7b8--8--7--7s5---7b8--8-7-7s5------------------------|
A#|--------------------------------------------------------------------|
F#|--------------------------------------------------------------------|
C#|--------------------------------------------------------------------|
G#|--------------------------------------------------------------------|
D#|--------------------------------------------------------------------|
 
d#|--------------------------------------------------------------------|
A#|--------------------12-11-10-8-7-6-5-3s12-3s12--3tr5----------------|
F#|--------------------------------------------------------------------|
C#|-2h-3p-2p-0h2s12----------------------------------------------------|
G#|--------------------------------------------------------------------|
D#|--------------------------------------------------------------------|
 
            
Submit corrections

↑ Back to top | Tablatures and chords for acoustic guitar and electric guitar, ukulele, drums are parodies/interpretations of the original songs. You may use it for private study, scholarship, research or language learning purposes only