Home » C » Comeback Kid »

Comeback Kid - Give'r (Reprise) Tabs

Artists:  A B C D E F G H I J K L M N O P Q R S T U V W X Y Z # 

Give'r (Reprise) Tabs

(ver. 1) Click to play this song!
Comeback Kid
Give'r(reprise)
Off the album Broadcasting

now i only tabbed the song as heard through both speakers at once
because it was less time consuming. Enjoi.

drop D tuning

E|----------|
B|----------|
G|----------|
D|-5/7-77-5-| x6
A|-3/5-77-5-|
D|-----77-5-|

E|----------|
B|----------|
G|----------|
D|-7-77/3-3-| x3
A|-7-77/3-3-|
D|-7-77/3-3-|

E|----------|
B|----------|
G|----5/7/8-|
D|-77-5/7/8-|
A|-77-3/5/6-|
D|-77-------|

E|----------|
B|----------|
G|----------|
D|-7-77/3-3-| x4
A|-7-77/3-3-|
D|-7-77/3-3-|

E|--------------|
B|--------------|
G|--------------|
D|-0~666666-6~6-|
A|-0~666666-6~6-|
D|-0~666666-6~6-|
PM   ...... 

E|-------------------------------------|
B|-------------------------------------|
G|-5/7-7-5-8-7-7-5-8-7-7-5-8-7-7-5-8-7-|
D|-5/7-7-5-8-7-7-5-8-7-7-5-8-7-7-5-8-7-|
A|-3/5-5-3-6-5-5-3-6-5-5-3-6-5-5-3-6-5-|
D|-------------------------------------|

E|----------|
B|----------|
G|----------|
D|-7-77/3-3-| x3
A|-7-77/3-3-|
D|-7-77/3-3-|

E|----------|
B|----------|
G|----5/7/8-|
D|-77-5/7/8-|
A|-77-3/5/6-|
D|-77-------|

E|----------|
B|----------|
G|----------|
D|-7-77/3-3-| x4
A|-7-77/3-3-|
D|-7-77/3-3-|

E|-------------------------------|
B|-------------------------------|
G|-----7--5/7\5/8-77--5/7\5/8-77-|
D|-0~--7--5/7\5/8-77--5/7\5/8-77-|
A|-0~--5--3/5\3/6-55--3/5\3/6-55-|
D|-0~----------------------------|

E|-----------------------------------|
B|-----------------------------------|
G|-5/7\5-8-7-5-8-7-5-10-8-7-12-12-12-|
D|-5/7\5-8-7-5-8-7-5-10-8-7-10-10-10-|
A|-3/5\3-6-5-3-6-5-3--8-6-5-10-10-10-|
D|-----------------------------------|

E|------------------------------------------|
B|------------------------------------------|
G|-777777777777-5/7\5/8-77777777777-5/7\5/8-|
D|-777777777777-5/7\5/8-77777777777-5/7\5/8-|
A|-555555555555-3/5\3/6-55555555555-3/5\3/6-|
D|------------------------------------------|

E|------------------------------------------|
B|------------------------------------------|
G|-777777777777-5/7\5-8-7-5-8-7-5-10-8-7-12-|
D|-777777777777-5/7\5-8-7-5-8-7-5-10-8-7-12-|
A|-555555555555-3/5\3-6-5-3-6-5-3--8-6-5-10-|
D|------------------------------------------|

E|----------------------|
B|----------------------|
G|----------------------|
D|-5/7-77-5-5/7-7/5/3-0-|
A|-3/5-77-5-3/5-7/5/3-0-|
D|-----77-5-----7/5/3-0-|
            
Submit corrections

↑ Back to top | Tablatures and chords for acoustic guitar and electric guitar, ukulele, drums are parodies/interpretations of the original songs. You may use it for private study, scholarship, research or language learning purposes only