» » »

College Fight Songs - A Real Hero Bass

Artists:  A B C D E F G H I J K L M N O P Q R S T U V W X Y Z # 

A Real Hero Bass

(ver. 1) Click to play this song!
College Fight Songs
 Rating:
4.3/5 (12 votes)
    A Real Hero  lessons Tabs too difficult? Try these video lessons and learn fast
                [Throughout]

G|-----------------------------------------------------------------|
D|-----------------------------------------------------------------|
A|9-9-9-9-9-9-6-6-6-6-6-6-6-6-4-4-------------4-4-4-4-4-4-4-4-4-4-4|
E|--------------------------------7-7-7-7-7-7----------------------|

G|-----------------------------------------------------------------|
D|-----------------------------------------------------------------|
A|9-9-9-9-9-9-6-6-6-6-6-6-6-6-4-4-------------4-4-4-4-4-4-4-4-4-4-4|
E|--------------------------------7-7-7-7-7-7----------------------|

G|-----------------------------------------------------------------|
D|-----------------------------------------------------------------|
A|9-9-9-9-9-9-6-6-6-6-6-6-6-6-4-4-------------4-4-4-4-4-4-4-4-4-4-4|
E|--------------------------------7-7-7-7-7-7----------------------|

G|-----------------------------------------------------------------|
D|-----------------------------------------------------------------|
A|9-9-9-9-9-9-6-6-6-6-6-6-6-6-4-4-------------4-4-4-4-4-4-4-4-4-4-4|
E|--------------------------------7-7-7-7-7-7----------------------|            
Submit corrections

↑ Back to top | Tablatures and chords for acoustic guitar and electric guitar, ukulele, drums are parodies/interpretations of the original songs. You may use it for private study, scholarship, research or language learning purposes only