» » »

Coldplay - Violet Hill Bass

Artists:  A B C D E F G H I J K L M N O P Q R S T U V W X Y Z # 

Violet Hill Bass

(ver. 1) Click to play this song!
Coldplay
 Rating:
4/5 (4 votes)


 Violet Hill lessons Tabs too difficult? Try these video lessons and learn fast
 
                                         VIOLET HILL:
This is my first tab, so rate it!!

    Begin at 00:50:
G-----------------------------------------|
D-----------------------------------------|
A-4-4-----4-x-4-4-----4-------------------|
E-----4-7---------4-7---5-5-5-4/2-2-21-10-|

    1:02 :
G-----------------------------------------------------------------|
D-----------------------------------------------------------------|
A---------2-2-2-2\4-4-4\11-2-2-2------------4~-2~-4-4-4-4-4-4-4-4-|
E-5-5-5-5-----------------------4~-5~-4~-0~-----------------------|

    1:26 :
G--------------------------------------------------|
D-----------------------4\9-11-4\9-11--------------|
A-4-4-----4-x-4-4-----4~--------------11/2-2-------|
E-----4-7---------4-7------------------------21-10-|

    1:38 :
G--------------------------------------------------|
D-----------------------4\9-11-4\9-11--------------|
A-4-4-----4-x-4-4-----4~--------------11/2-2-------|
E-----4-7---------4-7------------------------21-10-|

    1:51 :
G--------------------------------------|
D--------------------------------------|
A-------------2-2-2/9--4-4-11\4--2-2-2-|
E-5-5-5/12-----------------------------|

    2:03 :
G-----------------------------------|
D-----------------------------------|
A-------------4~-2~-4-4-4-4-4-4-4-4-|
E-4~-5~-4~-0~-----------------------|

    2:14:
G---------------------------------------|
D---------------------------------------|
A-4-4-4-4-4-4-----4-x-------------------|
E-------------4-7-----5-5-5-4/2-2-21-10-|

    2:27 :
G--------------------------------------------|
D--------------------------------------------|
A-4-4------4-x-4-4-----4-x-------------------|
E-----4-7----------4-7-----5-5-5-4\2-2-21-10-|

    2:40 :
G--------------------------------------|
D--------------------------------------|
A-------------2-2-2/9--4-4-11\4--2-2-2-|
E-5-5-5/12-----------------------------|

    2:51:
G-----------------------------------|
D-----------------------------------|
A-------------4~-2~-4-4-4-4-4-4-4-4-|
E-4~-5~-4~-0~-----------------------|
            
Submit corrections



        Violet Hill lessons Hard to play? Try these video lessons and learn fast Violet Hill lessons
        
↑ Back to top | Tablatures and chords for acoustic guitar and electric guitar, ukulele, drums are parodies/interpretations of the original songs. You may use it for private study, scholarship, research or language learning purposes only