» » »

Coldplay - Hymn For The Weekend Tabs

Artists:  A B C D E F G H I J K L M N O P Q R S T U V W X Y Z # 

Hymn For The Weekend Tabs

(ver. 1) Click to play this song!
Coldplay
 Rating:
4.3/5 (20 votes)

 Hymn For The Weekend  lessons Tabs too difficult? Try these video lessons and learn fast
 
                Tuning: standard

chorus 1 and 2

e|---------------------------------------------------------------------------|
B|----16--16--16--16--16--16--16--16--16--16--16--16--16--16--16--16--16-----|
G|--15--15--15--15--13--------------13--12--12--12--12--12--13--12--13-------| x4
D|----------------------15--15--15-------------------------------------------|
A|---------------------------------------------------------------------------|
E|---------------------------------------------------------------------------|

outro

e|------------------20-------------------20-------------------20-----------------------------|
B|--------16-15-16-----20------16-15-16-----20------16-15-16-----20---16--18--18h20--15-16---|
G|-----15-------------------15-------------------15------------------------------------------| x2
D|-------------------------------------------------------------------------------------------|
A|-------------------------------------------------------------------------------------------|
E|-------------------------------------------------------------------------------------------|
            
Submit corrections


        Hymn For The Weekend  lessons Hard to play? Try these video lessons and learn fast Hymn For The Weekend  lessons
        
↑ Back to top | Tablatures and chords for acoustic guitar and electric guitar, ukulele, drums are parodies/interpretations of the original songs. You may use it for private study, scholarship, research or language learning purposes only