» » »

Coldplay - Everythings Not Lost Lead Tabs

Artists:  A B C D E F G H I J K L M N O P Q R S T U V W X Y Z # 

Everythings Not Lost Lead Tabs

(ver. 1) Click to play this song!
Coldplay
 Rating:
4/5 (4 votes)

 Everythings Not Lost Lead lessons Tabs too difficult? Try these video lessons and learn fast
 
                coldplay
everything's not lost (lead guitar)


use delay and distortion... i think the delay maby a backwards delay or somthing ...like on the hendrix stuff.

verse:
e------------------------------------------------------------
B------------------------------------------------------------
G--9.------------9b11----------------------------------------
D------------------------------------------------------------
A------------------------------------------------------------
E------------------------------------------------------------
  .let ring
so if you ever feel neglected...part.

pre chorus:
e---------------------------------------------------
B---9---------9----------12-------------------------
G-9---9---9/11--11-11/13----13--14.----6~~----------
D---------------------------------------------------
A---------------------------------------------------
E---------------------------------------------------
i'll be counting up my deamons...


chorus:
e--12-12-12-12-12-12-\4-5---/12-12-12-12-12-12\4-5-----------
B------------------------------------------------------------
G------------------------------------------------------------
D------------------------------------------------------------X8
A------------------------------------------------------------
E------------------------------------------------------------


verse 2:
e------------------------------------------------------------
B------------------------------------------------------------
G--9.------------9b11----------------------------------------
D------------------------------------------------------------
A------------------------------------------------------------
E------------------------------------------------------------
  .let ring
cuz if you ever feel neglected...part.


e---------------------------------------------------
B---9---------9----------12-------------------------
G-9---9---9/11--11-11/13----13--14.----6~~----------
D---------------------------------------------------
A---------------------------------------------------
E---------------------------------------------------
i'll be counting up my deamons...

chorus 2:
e--12-12-12-12-12-12-\4-5---/12-12-12-12-12-12\4-5----------\
B--------------------------------------------------------    \
G--------------------------------------------------------     \
D--------------------------------------------------------
A--------------------------------------------------------
E--------------------------------------------------------
                                                                X2
e--12-12-12-12-12-12-\4-5---/12-12-12-12-12-12\16-17-----        
B--------------------------------------------------------
G--------------------------------------------------------    
D--------------------------------------------------------      /
A--------------------------------------------------------     /
E------------------------------------------------------------/

pre chorus:
e---------------------------------------------------
B---9---------9----------12-------------------------
G-9---9---9/11--11-11/13----13--14.----6~~----------
D---------------------------------------------------
A---------------------------------------------------
E---------------------------------------------------
i'll be counting up my deamons...

Ending:

guitar 1

e-77777777-99999999-12121212121212121414141414141414--
B-xxxxxxxx-xxxxxxxx-x-x-x-x-x-x-x-x-x-x-x-x-x-x-x-x---
G-44444444-66666666-9-9-9-9-9-9-9-9-1111111111111111--
D-----------------------------------------------------
A-----------------------------------------------------
E-----------------------------------------------------

e-12121212121212121414141414141414-161616161616161616161616-17171717-
B-x-x-x-x-x-x-x-x-x-x-x-x-x-x-x-x--x-x-x-x-x-x-x-x-x-x-x-x--x-x-x-x--
G-9-9-9-9-9-9-9-9-1111111111111111-131313131313131313131313-14141414-
D--------------------------------------------------------------------
A--------------------------------------------------------------------
E--------------------------------------------------------------------

guitar 2 plays

e--12-12-12-12-12-12-\4-5---/12-12-12-12-12-12\4-5----------\
B--------------------------------------------------------    \
G--------------------------------------------------------     \
D--------------------------------------------------------
A--------------------------------------------------------
E--------------------------------------------------------
                                                                X2
e--12-12-12-12-12-12-\4-5---/12-12-12-12-12-12\16-17-----        
B--------------------------------------------------------
G--------------------------------------------------------    
D--------------------------------------------------------      /
A--------------------------------------------------------     /
E------------------------------------------------------------/
            
Submit corrections


        Everythings Not Lost Lead lessons Hard to play? Try these video lessons and learn fast Everythings Not Lost Lead lessons
        
↑ Back to top | Tablatures and chords for acoustic guitar and electric guitar, ukulele, drums are parodies/interpretations of the original songs. You may use it for private study, scholarship, research or language learning purposes only