Home » C » Coldplay »

Coldplay - Easy To Please Tabs

Artists:  A B C D E F G H I J K L M N O P Q R S T U V W X Y Z # 

Easy To Please Tabs

(ver. 1) Click to play this song!
Coldplay
 Rating:
4/5 (4 votes)
                song      : easy to please
artist    : coldplay


i'm pretty sure this song is in an open tuning. not sure
if this one is correct, but it sounds pretty close.
the rhythm was hard to notate, so it's not very precise.
play around with the chords and listen to the song.


open G, capo on 2nd fret
chords relative to capo


INTRO

d-|----------------|----------------|
B-|----2--2--2-----|----2--2--2-----|
D-|----0--0--0-----|----0--0--0-----|
D-|----0--0--0-----|----0--0--0-----|
G-|4---4--4--4-----|4---4--4--4-----|
D-|----------------|----------------|
   ^   ^   ^   ^   |^   ^   ^   ^   |
   1   2   3   4    1   2   3   4   


VERSE

d-|----------------|----------------|----2--2--2-----|----2--2--2-----|
B-|----3--3--3-----|----3--3--3-----|----2--2--2-----|----2--2--2-----|
D-|----0--0--0-----|----0--0--0-----|----2--2--2-----|----2--2--2-----|
D-|----0--0--0-----|----0--0--0-----|----4--4--4-----|----4--4--4-----|
G-|4---4--4--4-----|4---4--4--4-----|2---2--2--2-----|2---2--2--2-----|
D-|----------------|----------------|----------------|----------------|
   ^   ^   ^   ^   |^   ^   ^   ^   |^   ^   ^   ^   |^   ^   ^   ^   |
   1   2   3   4    1   2   3   4    1   2   3   4    1   2   3   4   


d-|----0--0--0-----|----0--0--0-----|----0--0--0-----|----0--0--0-----|
B-|----3--3--3-----|----3--3--3-----|----2--2--2-----|----2--2--2-----|
D-|----5--5--5-----|----5--5--5-----|----4--4--4-----|----4--4--4-----|
D-|----0--0--0-----|----0--0--0-----|----0--0--0-----|----0--0--0-----|
G-|----4--4--4-----|----4--4--4-----|----2--2--2-----|----2--2--2-----|
D-|2---2--2--2-----|2---2--2--2-----|0---0--0--0-----|0---0--0--0-----|
   ^   ^   ^   ^   |^   ^   ^   ^   |^   ^   ^   ^   |^   ^   ^   ^   |
   1   2   3   4    1   2   3   4    1   2   3   4    1   2   3   4   


d-|----------------|----------------|----2--2--2-----|----2--2--2-----|
B-|----3--3--3-----|----3--3--3-----|----2--2--2-----|----2--2--2-----|
D-|----0--0--0-----|----0--0--0-----|----2--2--2-----|----2--2--2-----|
D-|----0--0--0-----|----0--0--0-----|----4--4--4-----|----4--4--4-----|
G-|4---4--4--4-----|4---4--4--4-----|2---2--2--2-----|2---2--2--2-----|
D-|----------------|----------------|----------------|----------------|
   ^   ^   ^   ^   |^   ^   ^   ^   |^   ^   ^   ^   |^   ^   ^   ^   |
   1   2   3   4    1   2   3   4    1   2   3   4    1   2   3   4   


d-|----0--0--0-----|----0--0--0-----|----9--9---7--7-|7/9-9--9--7-----|
B-|----3--3--3-----|----3--3--3-----|----0--0---0--0-|0-0-0--0--0-----|
D-|----5--5--5-----|----5--5--5-----|----9--9---7--7-|7/9-9--9--7-----|
D-|----0--0--0-----|----0--0--0-----|----0--0---0--0-|0-0-0--0--0-----|
G-|----4--4--4-----|----4--4--4-----|0---------------|0---------------|
D-|2---2--2--2-----|2---2--2--2-----|----------------|----------------|
   ^   ^   ^   ^   |^   ^   ^   ^   |^   ^   ^   ^   |^   ^   ^   ^   |
   1   2   3   4    1   2   3   4    1   2   3   4    1   2   3   4   


CHORUS - hard to hear what's actually played here...

d-|----0-----0---0-|----------------|------------0---|----------0---0-|
B-|----0-----2---2-|----------------|------------2---|----------2---2-|
D-|----0-----0---0-|----------0---0-|------0-----0---|----------0---0-|
D-|----0-----2---2-|----0-----2---2-|0-----2-----2---|0---------2---2-|
G-|0---0-----0---0-|----0-----0---0-|0-----0-----0---|0---------0---0-|
D-|----------------|----------------|----------------|----------------|
   ^   ^   ^   ^   |^   ^   ^   ^   |^   ^   ^   ^   |^   ^   ^   ^   |
   1   2   3   4    1   2   3   4    1   2   3   4    1   2   3   4   

d-|4--4-4/7-7--7---|4--4-4/7-7--7/9-|4--4-4/7-7--7---|4--4-4/7-7--7/9-|
B-|2--2-0-0-0--0---|2--2-0-0-0--0-0-|2--2-0-0-0--0---|2--2-0-0-0--0-0-|
D-|4--4-4/7-7--7---|4--4-4/7-7--7-9-|4--4-4/7-7--7---|4--4-4/7-7--7/9-|
D-|2--2-0----------|2--2-0----------|2--2-0----------|2--2-0----------|
G-|2--2-0----------|2--2-0----------|2--2-0----------|2--2-0----------|
D-|----------------|----------------|----------------|----------------|
   ^   ^   ^   ^   |^   ^   ^   ^   |^   ^   ^   ^   |^   ^   ^   ^   |
   1   2   3   4    1   2   3   4    1   2   3   4    1   2   3   4   
            
Submit corrections

↑ Back to top | Tablatures and chords for acoustic guitar and electric guitar, ukulele, drums are parodies/interpretations of the original songs. You may use it for private study, scholarship, research or language learning purposes only