Home » C » Coldplay »

Coldplay - Dont Let It Break Your Heart Bass

Artists:  A B C D E F G H I J K L M N O P Q R S T U V W X Y Z # 

Dont Let It Break Your Heart Bass

(ver. 1) Click to play this song!
Coldplay
the bridge is more of an imporivisation than a tab (it sounds good when played with the 
song), but im pretty sure the rest is right. also, this is my first tab, so please be nice!

A HOPEFULL TRANSMITION (starts at 0:16)

G|----|
D|----|
A|----|
E|-xx-|x8

INTRO

G|--------|--------|--------|-------|-------|--------|-------|-------|
D|2-2-2-2-|2-2-2-2-|1-1-1-1-|-------|-------|--------|-------|-------|
A|--------|--------|--------|2-2-2-2|6-6-6-6|6-6-6-6-|7-7-7-7|7-7-7-7|
E|--------|--------|--------|-------|-------|--------|-------|-------|

G|--------|--------|--------|-----------|
D|--------|--------|7-7-7-7-|10-10-10-10|
A|2-2-2-2-|2-2-2-2-|--------|-----------|
E|--------|--------|--------|-----------|

VERSE 1

G|---------|---------|--------|------|
D|---------|---------|--------|------|
A|2-2-22-2/|6-6-66-6\|--------|2-2-22|
E|---------|---------|4-4-44-4|------|x4

VERSE 2
same as intro

VERSE 3

G|---------|---------|--------|------|     |------|
D|---------|---------|--------|------|     |------|
A|2-2-22-2/|6-6-66-6\|--------|2-2-22|     |2~~~~~|
E|---------|---------|4-4-44-4|------|x2   |------|

G|---------|---------|--------|------|
D|---------|---------|--------|------|
A|2-2-22-2/|6-6-66-6\|--------|2-2-22|
E|---------|---------|4-4-44-4|------|

G|------|------|------|------|
D|------|------|------|------|
A|-2-222|-2-222|-7-777|-7-777|
E|------|------|------|------|x2

G|---------|---------|--------|--------|
D|---------|---------|--------|--------|
A|2-2-22-2/|6-6-66-6\|--------|2-2-22-2|
E|---------|---------|4-4-44-4|--------|x2

VERSE 4

G|--------|--------|--------|--------|--------|--------|--------|--------|
D|2-2-2-2-|2-2-2-2-|1-1-1-1-|--------|--------|--------|--------|--------|
A|--------|--------|--------|2-2-2-2-|6-6-6-6-|6-6-6-6-|7-7-7-7-|7-7-7-7-|
E|--------|--------|--------|--------|--------|--------|--------|--------|

G|--------|--------|--------|--------|--------|--------|--------|--------|
D|2-2-2-2-|2-2-2-2-|1-1-1-1-|--------|--------|--------|--------|--------|
A|--------|--------|--------|2-2-2-2-|6-6-6-6-|6-6-6-6-|7-7-7-7-|7-7-7-7-|
E|--------|--------|--------|--------|--------|--------|--------|--------|

G|--------|--------|--------|------------|
D|--------|--------|7-7-7-7-|10-10-10-10-|
A|2-2-2-2-|2-2-2-2-|--------|------------|
E|--------|--------|--------|------------|

BRIDGE

G|---------|------|---------|------|
D|---------|------|5-5-55-5\|2-2-22|
A|2-2-22-2/|6-6-66|---------|------|
E|---------|------|---------|------|x2

OUTRO

G|----|
D|----|
A|----|
E|-xx-|x11


LYRICS (100% correct)

and
if i lost a map
if i lost it all
or fell into the trap
then she'd call

when your tired of racing and just
find you never left the start
come on baby,
don't let it break your heart

though
heavily we bled
still on we crawl
tried to catch a
cannonball
and a slowly
burning tide
ohh, through my veins is flowing
then she said

when your tired of aiming your arrows
still you never hit the mark, ohh
and even in your rains and shadows
still we never gonna part, ahh
come on baby, don't let it break ypur heart

ooohhh ah ooohhh ah ooohhh
don't let it break your heart
ooohhh ah ooohhh ah ooohh
don't let it break your heart

don't let it break your heart
            
Submit corrections

↑ Back to top | Tablatures and chords for acoustic guitar and electric guitar, ukulele, drums are parodies/interpretations of the original songs. You may use it for private study, scholarship, research or language learning purposes only