Home » C » Coldplay »

Coldplay - Cry Cry Cry Live Tabs

Artists:  A B C D E F G H I J K L M N O P Q R S T U V W X Y Z # 

Cry Cry Cry Live Tabs

(ver. 1) Click to play this song!
Coldplay
[Chorus 1]
 
When you cry, cry,…cry, baby [palm muted]
 
e|----------------------------------------------------------------------------|
B|----------------------------------------------------------------------------|
G|-----------------------3--5-----------3--5-----------3--5-----------3--5----| x4
D|----------------------------------------------------------------------------|
A|----------------------------------------------------------------------------|
E|----------------------------------------------------------------------------|                     
 
[Bridge]
 
(Dum-dum-dum) Don't want us to hurt each other
 
e|-----------------------------------|-----------------------------------|
B|-----------------------------------|-----------------------------------|
G|------1--------1--------3--------3-|------3--------3--------5--------5-|
D|----3--------3--------5--------5---|----5--------5--------6--------6---|
A|--4--------4--------6--------6-----|--7--------7--------8--------8-----|
E|-----------------------------------|-----------------------------------| 
 
(Dum-dum-dum) We're in this together, baby (Dum-dum-dum)
 
e|-----------------------------------|-----------------------------------|
B|-----------------------------------|-----------------------------------|
G|------5--------5--------3--------3-|------3--------3--------5----5-----|
D|----6--------6--------3--------3---|----5--------5--------6------6-----|
A|--5--------5--------4--------4-----|--6--------6--------6--------6-----|
E|-----------------------------------|-----------------------------------| 
 
[Chorus 2]
 
When you cry, cry,…cry, baby [palm muted]
 
e|----------------------------------------------------------------------------|
B|----------------------------------------------------------------------------|
G|-----------------------3--5-----------3--5-----------3--5-----------3--5----| x4
D|----------------------------------------------------------------------------|
A|----------------------------------------------------------------------------|
E|----------------------------------------------------------------------------|  
 
[Solo]
 
[2:11]
 
e|--------------------------------------------|-------------------------------------|
B|--11h13-11h13-11h13-11-------11h13-11-------|-11h13-14-13-11-------11h13-11-------|
G|--13----13----13----13-10-13-13----13-10-13-|-13----13-13-13-10-13-13----13-10-13-|
D|--------------------------------------------|-------------------------------------|
A|--------------------------------------------|-------------------------------------|
E|--------------------------------------------|-------------------------------------|
 
[Outro]
 
For your miracles outnumber
 
e|--------------------------------------------------|
B|--------4-----------4-----------3-----------2-----|
G|------5---5-------5---5-------3---3-------1---1---| x3
D|----6-------6---6-------6---3-------3---3-------3-|
A|--6-----------6-----------5-----------4-----------|
E|--------------------------------------------------|  
            
Submit corrections

↑ Back to top | Tablatures and chords for acoustic guitar and electric guitar, ukulele, drums are parodies/interpretations of the original songs. You may use it for private study, scholarship, research or language learning purposes only