» » »

Coldplay - Crests Of Waves Tabs

Artists:  A B C D E F G H I J K L M N O P Q R S T U V W X Y Z # 

Crests Of Waves Tabs

(ver. 1) Click to play this song!
Coldplay
 Rating:
4.3/5 (24 votes)

 Crests Of Waves  lessons Tabs too difficult? Try these video lessons and learn fast
 
                [Intro]

e|----0-----------0--0--0--------------------------------------------|
B|----0-----------0--0--0--------------------------------------------|
G|----2-----------2--2--2--------------------------------------------|
D|----4-----------4--4--4--------------------------------------------|
A|----2-----------2--2--2--------------------------------------------|
E|-------------------------------------------------------------------|


[Riff 1]

This is the riff that is played in the intro of the song, and also in the chorus.

e|----7-----7-------------------------------------------------------------|
B|-------9---------------5-------4----------------------------------------|
G|------------------4h6------6------6--4--6-------------------------------| [x3]
D|------------------------------------------------------------------------|
A|------------------------------------------------------------------------|
E|------------------------------------------------------------------------|

e|----2--2--2-2---4--4--4--4-4-4------------------------------------------|
B|----2--2--2-2---4--4--4--4-4-4------------------------------------------|
G|----2--2--2-2---4--4--4--4-4-4------------------------------------------|
D|------------------------------------------------------------------------|
A|------------------------------------------------------------------------|
E|------------------------------------------------------------------------|


[Riff 2]

This is played over the verses of the song (timings may be off)

e|----x--x--x--x-------------------------------------------------------------------|
B|----x--x--x--x-------------------------------------------------------------------|
G|----4--4--4--4--6-6--6--6--6--x--x--x--x--x-x--x--x--x---------------------------|     [x4]
D|----6--6--6--6--7-7--7--7--7--2--2--2--2--4-4--4--4--4---------------------------|
A|----4--4--4--4--7-7--7--7--7--4--4--4--4--6-6--6--6--6---------------------------|
E|----------------5-5--5--5--5--2--2--2--2--4-4--4--4--4---------------------------|


[Riff 1] - Chorus

e|----7-----7-------------------------------------------------------------|
B|-------9---------------5-------4----------------------------------------|
G|------------------4h6------6------6--4--6-------------------------------|     [x3]
D|------------------------------------------------------------------------|
A|------------------------------------------------------------------------|
E|------------------------------------------------------------------------|

e|----2--2--2-2---4--4--4--4-4-4------------------------------------------|
B|----2--2--2-2---4--4--4--4-4-4------------------------------------------|
G|----2--2--2-2---4--4--4--4-4-4------------------------------------------|
D|------------------------------------------------------------------------|
A|------------------------------------------------------------------------|
E|------------------------------------------------------------------------|


[Riff 2] - Verse beginning "It could be worse, bitter or sweet..."

e|----x--x--x--x-------------------------------------------------------------------|
B|----x--x--x--x-------------------------------------------------------------------|
G|----4--4--4--4--6-6--6--6--6--x--x--x--x--x-x--x--x--x---------------------------|     [x4]
D|----6--6--6--6--7-7--7--7--7--2--2--2--2--4-4--4--4--4---------------------------|
A|----4--4--4--4--7-7--7--7--7--4--4--4--4--6-6--6--6--6---------------------------|
E|----------------5-5--5--5--5--2--2--2--2--4-4--4--4--4---------------------------|


[Riff 1] - Chorus

e|----7-----7-------------------------------------------------------------|
B|-------9---------------5-------4----------------------------------------|
G|------------------4h6------6------6--4--6-------------------------------|     [x3]
D|------------------------------------------------------------------------|
A|------------------------------------------------------------------------|
E|------------------------------------------------------------------------|

e|----2--2--2-2---4--4--4--4-4-4------------------------------------------|
B|----2--2--2-2---4--4--4--4-4-4------------------------------------------|
G|----2--2--2-2---4--4--4--4-4-4------------------------------------------|
D|------------------------------------------------------------------------|
A|------------------------------------------------------------------------|
E|------------------------------------------------------------------------|


[Riff 3] - Bridge

This is the part that begins "Nothing matters except life and the love you make"

e|-----------------------------------------------------------------------------------------------|
B|-----------------------------------------------------------------------------------------------|
G|--6-6-6-6-6-6-6-6-6-6-6-6-6-6-6-6-x-x-x-x-x-x-x-x-x-x-x-x-x-x-x-x------------------------------|     [x3]
D|--7-7-7-7-7-7-7-7-7-7-7-7-7-7-7-7-2-2-2-2-2-2-2-2-4-4-4-4-4-4-4-4------------------------------|
A|--7-7-7-7-7-7-7-7-7-7-7-7-7-7-7-7-4-4-4-4-4-4-4-4-6-6-6-6-6-6-6-6------------------------------|
E|--5-5-5-5-5-5-5-5-5-5-5-5-5-5-5-5-2-2-2-2-2-2-2-2-4-4-4-4-4-4-4-4------------------------------|

e|-------------------------------------------------------------------------------|
B|-------------------------------------------------------------------------------|
G|--x-x-x-x-x-x-x-x-x-x-x-x-x-x-x-x----------------------------------------------|
D|--2-2-2-2-2-2-2-2-4-4-4-4-4-4-4-4----------------------------------------------|
A|--4-4-4-4-4-4-4-4-6-6-6-6-6-6-6-6----------------------------------------------|
E|--2-2-2-2-2-2-2-2-4-4-4-4-4-4-4-4----------------------------------------------|


[Riff 1]


[Outro]

Played as he sings "Screaming out from the crests of waves, you're longing to be saved"

e|--2--2--2-2--4--4--4--4-4-4--|
B|--2--2--2-2--4--4--4--4-4-4--|
G|--2--2--2-2--4--4--4--4-4-4--|     [x4]
D|-----------------------------|
A|-----------------------------|
E|-----------------------------|            
Submit corrections


        Crests Of Waves  lessons Hard to play? Try these video lessons and learn fast Crests Of Waves  lessons
        
↑ Back to top | Tablatures and chords for acoustic guitar and electric guitar, ukulele, drums are parodies/interpretations of the original songs. You may use it for private study, scholarship, research or language learning purposes only