» » »

Coldplay - Coldplay Tabs

Artists:  A B C D E F G H I J K L M N O P Q R S T U V W X Y Z # 

Coldplay Tabs

(ver. 1) Click to play this song!
Coldplay
 Rating:
4.3/5 (22 votes)

 Coldplay lessons Tabs too difficult? Try these video lessons and learn fast
 
                [Intro]

e|-4-----------|
B|---2-4-5-4-2-|
G|-------------|
D|-------------| x7
A|-------------|
E|-------------|

[Verse]

     If you call and call,           Your self esteem is low,             And I heard you'd called
e|----------------------|---------|-------------------------|-----------|--------------------------|
B|---0------------------|---------|--0----------------------|-----------|-0------------------------|
G|------2---2----2---2--|---------|-------2----2------2--2--|-----------|-----2-2-----2------2-----|
D|----------------------|---0-----|-------------------------|----0------|--------------------------|
A|----------2--------0--|-------0-|------------2---------0--|---------0-|-------2------------0-----|
E|-3--------------------|-3---3---|-------------------------|--3----3---|--------------------------|
     Is there no calling?
e|------------------------|
B|------------1--3--0-----|
G|---2--2---------------2-|
D|------2---------------0-|
A|-0-------------2--------|
E|------------------------|
     And away I........go,             Any way you.....go,                I was o­n your tail
e|------------------------|---------|-----------------------|-----------|------------------------|
B|---0--------------------|---------|--0--------------------|-----------|-0----------------------|
G|-------2----2----2---2--|---------|------2---2----2--2----|-----------|---2---2--2----2--------|
D|------------------------|---0-----|-----------------------|----0------|------------------------|
A|------------2--------0--|-------0-|----------2-------0----|---------0-|-------2-------0--------|
E|-3----------------------|-3---3---|-----------------------|--3----3---|------------------------|
     As clear as crystal.
e|------------------------|
B|------------1--3--0-----|
G|---2--2---------------2-|
D|------2---------------0-|
A|-0-------------2--------|
E|------------------------|

[Instrumental and Chorus]
                                                                    But it was harm....less
e|----------------0---|-3---1----0-------|---------0---|-3---1----0--------------------0-----|
B|---0-----0-1/3--1-1-|-----0-0--1-1-1-1-|--0-1/3--1-1-|-----0-0--1-----1------0-1-3---1--1--|
G|---0-0---0-2/4--0-2-|-2-2----------2---|--0-2/4--0-2-|-2-2--------0---2--0---0-----0-2-----|
D|----------(2/4)-2-2-|------------------|---(2/4)-2-2-|------------2------2---0-------2-----|
A|--------(2)-------0-|(3)-(0)--(3)-(0)--|-(2)-------0-|(3)-(0)--(3)---(0)-------------------|
E|-3------------------|------------------|-------------|-------------------------------------|
              It couldn't hurt you....              Oh you were help...less
e|-3---1----0---------------------0-----|-3---1---0---------------------0-----|
B|-----0-0--1----1--------0-1-3---1--1--|-----0-0-1----1--------0-1-3---1--1--|
G|-2-2--------0--2---0----0-----0-2-----|-2-2-------0--2---0----0-----0-2-----|
D|------------2------2----0-------2-----|-----------2------2----0-------2-----|
A|(3)-(0)--(3)--(0)---------------------|(3)-(0)-(3)--(0)---------------------|
E|--------------------------------------|-------------------------------------|
             I know you'll get.....through              I know, I
e|-3---1---0-----------------------0------|-3---1----0----------------|
B|-----0-0-1---1-----------0-1-3---1--1---|-----0-0--1----1/3---3~~~--|
G|-2-2-------0-2----0------0-----0-2------|-2-2---------0-2-----------|
D|-----------2------2------0-------2------|-------------2-------------|
A|(3)-(0)-(3)-(0)-------------------------|(3)-(0)--(3)--(0)----------|
E|----------------------------------------|---------------------------|

e|-4-----------|
B|---2-4-5-4-2-|
G|-------------|
D|-------------| x3
A|-------------|
E|-------------|

[Instrumental]

e|-------------------------|-----------------------|
B|---0--0---0--------------|---0--0---0------------|
G|---0--0---0---2---2-2----|---0--0---0---2---2-2--|
D|-0----0-0---0-0---0-0----|-0----0-0---0-0---0-0--| x2
A|--------------2-2---0----|--------------2-2---0--|
E|-3-----------------------|-3---------------------|

[Verse 2]

     Chemicals are cold            See you sit down o­n               A chemical you cause
e|--------------------|---------|----------------------|-----------|-----------------------|
B|---0----------------|---------|--0-------------------|-----------|-0---------------------|
G|------2-2----2---2--|---------|------2---2---2----2--|-----------|---2----2---2---2------|
D|-0------------------|---0-----|----------------------|----0------|-----------------------|
A|--------2--------0--|-------0-|----------2--------0--|---------0-|--------2------------0-|
E|-3------------------|-3---3---|----------------------|--3----3---|-----------------------|
     Is like a crystal
e|----------------------|
B|-----------1-3--0-----|
G|---2--2-------------2-|
D|------2-------------0-|
A|-0-----------2--------|
E|----------------------|
     So I heard you say             I got to get away              I'm o­n a second trail
e|---------------------|---------|-------------------|-----------|---------------------|
B|---0-----------------|---------|--0----------------|-----------|-0-------------------|
G|------2-2-----2---2--|---------|----2---2--2----2--|-----------|-----2--2-2------2---|
D|-0-------------------|---0-----|-------------------|----0------|---------------------|
A|--------2---------0--|-------0-|--------2-------0--|---------0-|--------2--------0---|
E|-3-------------------|-3---3---|-------------------|--3----3---|---------------------|
     As clear as crystal
e|------------------------|
B|------------1--3--0-----|
G|---2--2--------------2--|
D|------2--------------0--|
A|-0-------------2--------|
E|------------------------|

[Chorus 2]
   But it was harm....less              It couldn't hurt....you
e|--------------------0-----|-3---1---0---------------------0-----|
B|-----1------0-1-3---1--1--|-----0-0-1----1--------0-1-3---1--1--|
G|-0---2--0---0-----0-2-----|-2-2-------0--2---0----0-----0-2-----|
D|-2------2---0-------2-----|-----------2------2----0-------2-----|
A|----(0)-------------------|(3)-(0)-(3)--(0)---------------------|
E|--------------------------|-------------------------------------|
              Oh you were help....less              I know you'll get.....through
e|-3---1----0---------------------0-----|-3---1---0-----------------------0-----|
B|-----0-0--1----1--------0-1-3---1--1--|-----0-0-1---1-----------0-1-3---1--1--|
G|-2-2--------0--2---0----0-----0-2-----|-2-2-------0-2----0------0-----0-2-----|
D|------------2------2----0-------2-----|-----------2------2------0-------2-----|
A|(3)-(0)--(3)--(0)---------------------|(3)-(0)-(3)-(0)------------------------|
E|--------------------------------------|---------------------------------------|

            
Submit corrections


        Coldplay lessons Hard to play? Try these video lessons and learn fast Coldplay lessons
        
↑ Back to top | Tablatures and chords for acoustic guitar and electric guitar, ukulele, drums are parodies/interpretations of the original songs. You may use it for private study, scholarship, research or language learning purposes only