Home » C » Coldplay »

Coldplay - Clocks Bass

Artists:  A B C D E F G H I J K L M N O P Q R S T U V W X Y Z # 

Clocks Bass

(ver. 1) Click to play this song!
Coldplay
[Intro] 0:00 - 0:28
Piano melody
G|----------------|----------------|----------------|----------------|
D|----------------|----------------|----------------|----------------|
A|----------------|----------------|----------------|----------------|
E|----------------|----------------|----------------|----------------|
 
Band joins in @ 0:15 (Repeat 2x)
  >     >     >    >     >     >    >     >     >    >     >     >
G|----------------|----------------|----------------|----------------|
D|----------------|----------------|----------------|----------------|
A|6-6-6-6-6-6-6-6-|----------------|----------------|8-8-8-8-8-8-8-8-|
E|----------------|6-6-6-6-6-6-6-6-|6-6-6-6-6-6-6-6-|----------------|
 
 
 
[Verse 1] 0:29 - 0:58 (Repeat 4x)
  >     >     >    >     >     >    >     >     >    >     >     >
G|----------------|----------------|----------------|----------------|
D|----------------|----------------|----------------|----------------|
A|6-6-6-6-6-6-6-6-|----------------|----------------|8-8-8-8-8-8-8-8-|
E|----------------|6-6-6-6-6-6-6-6-|6-6-6-6-6-6-6-6-|----------------|
 
 
 
[Pre-Chorus] 0:59 - 1:12 (Repeat 2x)
  >     >     >    >     >     >    >     >     >    >     >     >
G|----------------|----------------|----------------|----------------|
D|----------------|----------------|----------------|----------------|
A|6-6-6-6-6-6-6-6-|----------------|----------------|----------------|
E|----------------|6-6-6-6-6-6-6-6-|6-6-6-6-6-6-6-6-|1-1-1-1-1-1-1-1/|
 
 
 
[Instrumental Chorus] 1:13 - 1:28 (Repeat 2x)
  >     >     >    >     >     >     >     >     >    >     >     >
G|----------------|-----------------|----------------|----------------|
D|------------6-8-|8-8-8-8-8-8-8-10-|8-8-8-6-6-6-5-5-|----------------|
A|6-6-6-6-6-6-----|-----------------|----------------|----------------|
E|----------------|-----------------|----------------|4-4-4-4-4-4-4-4-|
 
 
 
[Verse 2] 1:29 - 1:57 (Repeat 4x)
  >     >     >    >     >     >    >     >     >    >     >     >
G|----------------|----------------|----------------|----------------|
D|----------------|----------------|----------------|----------------|
A|6-6-6-6-6-6-6-6-|----------------|----------------|8-8-8-8-8-8-8-8-|
E|----------------|6-6-6-6-6-6-6-6-|6-6-6-6-6-6-6-6-|----------------|
 
 
 
[Pre-Chorus 2] 1:58 - 2:26 (Repeat 4x)
  >     >     >    >     >     >    >     >     >    >     >     >
G|----------------|----------------|----------------|----------------|
D|----------------|----------------|----------------|----------------|
A|6-6-6-6-6-6-6-6-|----------------|----------------|----------------|
E|----------------|6-6-6-6-6-6-6-6-|6-6-6-6-6-6-6-6-|1-1-1-1-1-1-1-1/|
 
 
 
[Instrumental Chorus 2] 2:27 - 2:55 (Repeat 4x)
  >     >     >    >     >     >     >     >     >    >     >     >
G|----------------|-----------------|----------------|----------------|
D|------------6-8-|8-8-8-8-8-8-8-10-|8-8-8-6-6-6-5-5-|----------------|
A|6-6-6-6-6-6-----|-----------------|----------------|----------------|
E|----------------|-----------------|----------------|4-4-4-4-4-4-4-4-|
 
 
 
[Bridge] 2:56 - 3:25
  >     >     >    >     >     >     >     >     >    >     >     >
G|----------------|----------------|----------------|----------------|
D|4-4-4-4-4-4-4-4-|4-4-4-4-4-4-4-4-|----------------|----------------|
A|----------------|----------------|4-4-4-4-4-4-4-4-|----------------| x3
E|----------------|----------------|----------------|4-4-4-4-4-4-4-4-|
 
  >     >     >    >     >     >     >     >     >    >     >     >
G|----------------|----------------|----------------|----------------|
D|----------------|----------------|----------------|----------------|
A|----------------|----------------|9-9-9-9-9-9-9-9-|9-9-9-9-9-9-9-9-|
E|2-2-2-2-2-2-2-2-|2-2-2-2-2-2-2-2/|----------------|----------------|
 
 
 
[Piano Interlude] 3:26 - 3:39
G|----------------|----------------|-----------------|----------------|
D|----------------|----------------|-----------------|----------------|
A|----------------|----------------|-----------------|----------------|
E|11--------------|(11)------------|-----------------|----------------|
(let ring as piano plays)
 
 
 
[Coda] 3:40 - 4:38 (Repeat 8x)
  >     >     >    >     >     >     >     >     >    >     >     >
G|----------------|-----------------|----------------|----------------|
D|------------6-8-|8-8-8-8-8-8-8-10-|8-8-8-6-6-6-5-5-|----------------|
A|6-6-6-6-6-6-----|-----------------|----------------|----------------|
E|----------------|-----------------|----------------|4-4-4-4-4-4-4-4-|
 
 
 
[Outro] 4:39 - END (Repeat 4x, gradually fading out)
G|----------------|-----------------|-----------------|-----------------|
D|----------------|-----------------|-----------------|-----------------|
A|6---------------|(6)--------------|(6)--------------|8----------------|
E|----------------|-----------------|-----------------|-----------------|
            
Submit corrections

↑ Back to top | Tablatures and chords for acoustic guitar and electric guitar, ukulele, drums are parodies/interpretations of the original songs. You may use it for private study, scholarship, research or language learning purposes only