» » »

Coldplay - A Whisper Tabs

Artists:  A B C D E F G H I J K L M N O P Q R S T U V W X Y Z # 

A Whisper Tabs

(ver. 1) Click to play this song!
Coldplay
 Rating:
4.1/5 (31 vote)

 A Whisper lessons Tabs too difficult? Try these video lessons and learn fast
 
                [Intro]
e|-------------|-------------|-------------|-------------|
B|-------------|-------------|-------------|-------------|
G|-4-4-4-4-4-4-|-4-4-4-4-4-4-|-4-4-4-4-4-4-|-4-4-4-4-4-4-| (x4)
D|-5-5-5-7-7-7-|-5-5-5-7-7-7-|-5-5-5-7-7-7-|-5-5-5-7-7-7-|
A|-5-5-5-5-5-5-|-5-5-5-5-5-5-|-5-5-5-5-5-5-|-5-5-5-5-5-5-|
E|-3-3-3-3-3-3-|-3-3-3-3-3-3-|-3-3-3-3-3-3-|-3-3-3-3-3-3-|

[Verse 1]
e|-------------|
B|-------------|
G|-------------| (x4)
D|-5-5-5-7-7-7-|
A|-6-6-6-6-6-6-|
E|-------------|

e|-------------|-------------|-------------|-------------|
B|-------------|-------------|-------------|-------------|
G|-4-4-4-4-4-4-|-4-4-4-4-4-4-|-4-4-4-4-4-4-|-4-4-4-4-4-4-|
D|-5-5-5-7-7-7-|-5-5-5-7-7-7-|-5-5-5-7-7-7-|-5-5-5-7-7-7-|
A|-5-5-5-5-5-5-|-5-5-5-5-5-5-|-5-5-5-5-5-5-|-5-5-5-5-5-5-|
E|-3-3-3-3-3-3-|-3-3-3-3-3-3-|-3-3-3-3-3-3-|-3-3-3-3-3-3-|

e|-------------|
B|-------------|
G|-------------| (x4)
D|-5-5-5-7-7-7-|
A|-6-6-6-6-6-6-|
E|-------------|

e|-------------|-------------|-------------|-------------|
B|-------------|-------------|-------------|-------------|
G|-4-4-4-4-4-4-|-4-4-4-4-4-4-|-4-4-4-4-4-4-|-4-4-4-4-4-4-| (x2)
D|-5-5-5-7-7-7-|-5-5-5-7-7-7-|-5-5-5-7-7-7-|-5-5-5-7-7-7-|
A|-5-5-5-5-5-5-|-5-5-5-5-5-5-|-5-5-5-5-5-5-|-5-5-5-5-5-5-|
E|-3-3-3-3-3-3-|-3-3-3-3-3-3-|-3-3-3-3-3-3-|-3-3-3-3-3-3-|

[Chorus 1]
e|---7-----7---|---7-----7---|---7-----7---|---7---3-3-3-|
B|-----0-----0-|-----0-----0-|-----0-----0-|-----0-5-3-3-|
G|-9-----8-----|-9-----8-----|-9-----8-----|-9-----5-5-3-|
D|-------------|-------------|-------------|-------------|
A|-------------|-------------|-------------|-------------|
E|-------------|-------------|-------------|-------------|

e|----|---|---|---|
B|----|---|---|---|
G|----|---|---|---|
D|----|---|---|---|
A|----|---|---|---|
E|-3~~|~~~|~~~|~~~|

e|---7-----7---|---7-----7---|---7-----7---|---7---3-3-3-|
B|-----0-----0-|-----0-----0-|-----0-----0-|-----0-5-3-3-|
G|-9-----8-----|-9-----8-----|-9-----8-----|-9-----5-5-3-|
D|-------------|-------------|-------------|-------------|
A|-------------|-------------|-------------|-------------|
E|-------------|-------------|-------------|-------------|

e|----|---|---|---|
B|----|---|---|---|
G|----|---|---|---|
D|----|---|---|---|
A|----|---|---|---|
E|-3~~|~~~|~~~|~~~|

[Verse 2]
e|-------------|
B|-------------|
G|-------------| (x4)
D|-5-5-5-7-7-7-|
A|-6-6-6-6-6-6-|
E|-------------|

e|-------------|-------------|-------------|-------------|
B|-------------|-------------|-------------|-------------|
G|-4-4-4-4-4-4-|-4-4-4-4-4-4-|-4-4-4-4-4-4-|-4-4-4-4-4-4-|
D|-5-5-5-7-7-7-|-5-5-5-7-7-7-|-5-5-5-7-7-7-|-5-5-5-7-7-7-|
A|-5-5-5-5-5-5-|-5-5-5-5-5-5-|-5-5-5-5-5-5-|-5-5-5-5-5-5-|
E|-3-3-3-3-3-3-|-3-3-3-3-3-3-|-3-3-3-3-3-3-|-3-3-3-3-3-3-|

e|-----7-|-----7-|-----7-|-----7-|
B|-0-----|-0-----|-0-----|-0-----|
G|---8---|---8---|---8---|---8---| (x3)
D|-------|-------|-------|-------|
A|-------|-------|-------|-------|
E|-------|-------|-------|-------|

[Bridge]
e|-5-5-5-5--5-5-5-5-5--5-|-----------------------|
B|-7-7-7-7--7-7-7-7-7--7-|-3-3-3-3--3-3-3-3-3--3-|
G|-7-7-7-7--7-7-7-7-7--7-|-3-3-3-3--3-3-3-3-3--3-|
D|-----------------------|-3-3-3-3--3-3-3-3-3--3-|
A|-----------------------|-----------------------|
E|-----------------------|-----------------------|

e|-/2-2-2-2--2-/2-2-2-2--2-|-/2-2-2-2--2-/2-2-2-2--2-|
B|-/4-4-4-4--4-/4-4-4-4--4-|-/4-4-4-4--4-/4-4-4-4--4-|
G|-/4-4-4-4--4-/4-4-4-4--4-|-/4-4-4-4--4-/4-4-4-4--4-|
D|-------------------------|-------------------------|
A|-------------------------|-------------------------|
E|-------------------------|-------------------------|
^(x2)

e|-5-5-5-5--5-5-5-5-5--5-|-----------------------|
B|-7-7-7-7--7-7-7-7-7--7-|-3-3-3-3--3-3-3-3-3--3-|
G|-7-7-7-7--7-7-7-7-7--7-|-3-3-3-3--3-3-3-3-3--3-|
D|-----------------------|-3-3-3-3--3-3-3-3-3--3-|
A|-----------------------|-----------------------|
E|-----------------------|-----------------------|

e|-/2-2-2-2--2-/2-2-2-2--2-|-/2-2-2-2--2-3-3-3-|
B|-/4-4-4-4--4-/4-4-4-4--4-|-/4-4-4-4--4-5-3-3-|
G|-/4-4-4-4--4-/4-4-4-4--4-|-/4-4-4-4--4-5-5-3-|
D|-------------------------|-------------------|
A|-------------------------|-------------------|
E|-------------------------|-------------------|

e|----|---|---|---|
B|----|---|---|---|
G|----|---|---|---|
D|----|---|---|---|
A|----|---|---|---|
E|-3~~|~~~|~~~|~~~|

[Verse 3]
e|-----7-|-----7-|-----7-|-----7-|
B|-0-----|-0-----|-0-----|-0-----|
G|---8---|---8---|---8---|---8---|
D|-------|-------|-------|-------|
A|-------|-------|-------|-------|
E|-------|-------|-------|-------|

e|-------------|-------------|-------------|-------------|
B|-------------|-------------|-------------|-------------|
G|-4-4-4-4-4-4-|-4-4-4-4-4-4-|-4-4-4-4-4-4-|-4-4-4-4-4-4-|
D|-5-5-5-7-7-7-|-5-5-5-7-7-7-|-5-5-5-7-7-7-|-5-5-5-7-7-7-|
A|-5-5-5-5-5-5-|-5-5-5-5-5-5-|-5-5-5-5-5-5-|-5-5-5-5-5-5-|
E|-3-3-3-3-3-3-|-3-3-3-3-3-3-|-3-3-3-3-3-3-|-3-3-3-3-3-3-|

e|-----7-|-----7-|-----7-|-----7-|
B|-0-----|-0-----|-0-----|-0-----|
G|---8---|---8---|---8---|---8---|
D|-------|-------|-------|-------|
A|-------|-------|-------|-------|
E|-------|-------|-------|-------|

e|-------------|-------------|-------------|-------------|
B|-------------|-------------|-------------|-------------|
G|-4-4-4-4-4-4-|-4-4-4-4-4-4-|-4-4-4-4-4-4-|-4-4-4-4-4-4-| (x2)
D|-5-5-5-7-7-7-|-5-5-5-7-7-7-|-5-5-5-7-7-7-|-5-5-5-7-7-7-|
A|-5-5-5-5-5-5-|-5-5-5-5-5-5-|-5-5-5-5-5-5-|-5-5-5-5-5-5-|
E|-3-3-3-3-3-3-|-3-3-3-3-3-3-|-3-3-3-3-3-3-|-3-3-3-3-3-3-|

[Chorus 2]
e|---7-----7---|---7-----7---|---7-----7---|---7---3-3-3-|
B|-----0-----0-|-----0-----0-|-----0-----0-|-----0-5-3-3-|
G|-9-----8-----|-9-----8-----|-9-----8-----|-9-----5-5-3-|
D|-------------|-------------|-------------|-------------|
A|-------------|-------------|-------------|-------------|
E|-------------|-------------|-------------|-------------|

e|----|---|---|---|
B|----|---|---|---|
G|----|---|---|---|
D|----|---|---|---|
A|----|---|---|---|
E|-3~~|~~~|~~~|~~~|

e|---7-----7---|---7-----7---|---7-----7---|---7---3-3-3-|
B|-----0-----0-|-----0-----0-|-----0-----0-|-----0-5-3-3-|
G|-9-----8-----|-9-----8-----|-9-----8-----|-9-----5-5-3-|
D|-------------|-------------|-------------|-------------|
A|-------------|-------------|-------------|-------------|
E|-------------|-------------|-------------|-------------|

e|-------------|-------------|-------------|-------------|
B|-------------|-------------|-------------|-------------|
G|-4-4-4-4-4-4-|-4-4-4-4-4-4-|-4-4-4-4-4-4-|-4-4-4-4-4-4-|
D|-5-5-5-7-7-7-|-5-5-5-7-7-7-|-5-5-5-7-7-7-|-5-5-5-7-7-7-|
A|-5-5-5-5-5-5-|-5-5-5-5-5-5-|-5-5-5-5-5-5-|-5-5-5-5-5-5-|
E|-3-3-3-3-3-3-|-3-3-3-3-3-3-|-3-3-3-3-3-3-|-3-3-3-3-3-3-|

[Verse 4]
e|-------------|-------------|-------------|-------------|
B|-------------|-------------|-------------|-------------|
G|-4-4-4-4-4-4-|-4-4-4-4-4-4-|-4-4-4-4-4-4-|-4-4-4-4-4-4-|
D|-5-5-5-7-7-7-|-5-5-5-7-7-7-|-5-5-5-7-7-7-|-5-5-5-7-7-7-|
A|-5-5-5-5-5-5-|-5-5-5-5-5-5-|-5-5-5-5-5-5-|-5-5-5-5-5-5-|
E|-3-3-3-3-3-3-|-3-3-3-3-3-3-|-3-3-3-3-3-3-|-3-3-3-3-3-3-|

e|-----7-|-----7-|-----7-|-----7-|
B|-0-----|-0-----|-0-----|-0-----|
G|---8---|---8---|---8---|---8---| (x3)
D|-------|-------|-------|-------|
A|-------|-------|-------|-------|
E|-------|-------|-------|-------|

e|-----7-|-----7-|-----7-|-----7-|
B|-9-----|-9-----|-9-----|-9-----|
G|---8---|---8---|---8---|---8---|
D|-------|-------|-------|-------|
A|-------|-------|-------|-------|
E|-------|-------|-------|-------|

[Outro]
e|----------------------|---|
B|-13-------------12----|---|
G|----10----------------|---| (Over and over until it fades)
D|-------11-12/14----14-|9~~|
A|----------------------|---|
E|----------------------|---|            
Submit corrections


        A Whisper lessons Hard to play? Try these video lessons and learn fast A Whisper lessons
        
↑ Back to top | Tablatures and chords for acoustic guitar and electric guitar, ukulele, drums are parodies/interpretations of the original songs. You may use it for private study, scholarship, research or language learning purposes only