» » »

Coldplay - A Sky Full Of Stars Tabs

Artists:  A B C D E F G H I J K L M N O P Q R S T U V W X Y Z # 

A Sky Full Of Stars Tabs

(ver. 1) Click to play this song!
Coldplay
 Rating:
4.4/5 (22 votes)

 A Sky Full Of Stars  lessons Tabs too difficult? Try these video lessons and learn fast
 
                Tuning:E-A-D-G-B-E





e|------19-----18---19-------------------------------------------------------|
B|---18-----18--------7--7--7--9--9--12--12--12--12--12--11--11---11---11----|
G|---------------------------------------------------------------------------|
D|---------------------------------------------------------------------------|
E|---------------------------------------------------------------------------|
A|---------------------------------------------------------------------------|

e|--------------------------------------------------------------14--14-------|
B|-11---9---9----9-----9----9---7--7--7---9----9---12-12---12-----14----11-11|
G|---------------------------------------------------------------------------|
D|---------------------------------------------------------------------------|
A|---------------------------------------------------------------------------|
E|---------------------------------------------------------------------------|

e|------14---14------------------14-----14-----------------------------------|
B|-11-----14------9----9----9-------14-------7---7---7-----9----9----12---12-|
G|---------------------------------------------------------------------------|
D|---------------------------------------------------------------------------|
A|---------------------------------------------------------------------------|
E|---------------------------------------------------------------------------|

e|--------14--14--------------------14--14-----------------14--------14------|
B|--12------14-----11---11---11-------14-----9----9---9----------14------7---|
G|---------------------------------------------------------------------------|
D|---------------------------------------------------------------------------|
A|---------------------------------------------------------------------------|
E|---------------------------------------------------------------------------|            
Submit corrections


        A Sky Full Of Stars  lessons Hard to play? Try these video lessons and learn fast A Sky Full Of Stars  lessons
        
↑ Back to top | Tablatures and chords for acoustic guitar and electric guitar, ukulele, drums are parodies/interpretations of the original songs. You may use it for private study, scholarship, research or language learning purposes only