» » »

Coldplay - All My Friends Tabs

Artists:  A B C D E F G H I J K L M N O P Q R S T U V W X Y Z # 

All My Friends Tabs

(ver. 1) Click to play this song!
Coldplay
 Rating:
4.4/5 (14 votes)

 All My Friends  lessons Tabs too difficult? Try these video lessons and learn fast
 
                Intro
e|------|------|----------------------|------|
B|------|------|----------------------|------|
G|------|------|----------------------|------|
D|------|------|----------------------|------|
A|------|------|--------14-14--12-12\-|------|
E|-9/14-|-9/12-|-9--14--12-12--10-10\-|-9/12-|

Verse 2: Without guitar

Chorus 1
e|---0--|--0--|--0--|---0--|
B|---0--|--0--|--0--|---0--|
G|--11--|--1--|--1--|--11--| x2
D|--12--|--2--|--2--|--12--|
A|--12--|--2--|--2--|--12--|
E|--10--|--0--|--0--|--10--|

   D  D  U U D D (D U)   D
e|-2--2--0-0-0-0--0-0-|--0--|
B|-3--3--0-0-0-0--0-0-|--0--|
G|-4--4--1-1-1-1--1-1-|--2--|
D|-4--4--2-2-2-2--2-2-|--4--|
A|-2--2--2-2-2-2--2-2-|--4--|
E|-------0-0-0-0--0-0-|--2--|

Post-chorus
e|------|------|------------------|-----------|
B|------|------|------------------|-----------|
G|------|------|------------------|-----------|
D|------|------|------------------|-----------|
A|------|------|--------14-14--12-|-12\-------|
E|-9/14-|-9/12-|-9--14--12-12--10-|-10\--9/12-|

Verse 2: Without guitar

Chorus 2
e|---0--|--0--|--0--|---0--|
B|---0--|--0--|--0--|---0--|
G|--11--|--1--|--1--|--11--| x2
D|--12--|--2--|--2--|--12--|
A|--12--|--2--|--2--|--12--|
E|--10--|--0--|--0--|--10--|

   D  D  U U D D (D U)   D
e|-2--2--0-0-0-0--0-0-|--0--|
B|-3--3--0-0-0-0--0-0-|--0--|
G|-4--4--1-1-1-1--1-1-|--2--| x2
D|-4--4--2-2-2-2--2-2-|--4--|
A|-2--2--2-2-2-2--2-2-|--4--|
E|-------0-0-0-0--0-0-|--2--|

Solo
e|----------------------10-|----------10--10-------|-12-12-----------------|-12-12-------|
B|-------10----------10----|-------10--------10----|-------12--------------|-------12----|
G|----11----11----11-------|----11--------------11-|----------13-----13----|----------13-| x4
D|-12----------12----------|-12--------------------|--------------14----14-|-------------|
A|-------------------------|-----------------------|-----------------------|-------------|
E|-------------------------|-----------------------|-----------------------|-------------|

Outro: Without guitar
e|--|
B|--|
G|--|
B|--|
A|--|
E|--|
            
Submit corrections


        All My Friends  lessons Hard to play? Try these video lessons and learn fast All My Friends  lessons
        
↑ Back to top | Tablatures and chords for acoustic guitar and electric guitar, ukulele, drums are parodies/interpretations of the original songs. You may use it for private study, scholarship, research or language learning purposes only