» » »

Coldplay - A Head Full Of Dreams Tabs

Artists:  A B C D E F G H I J K L M N O P Q R S T U V W X Y Z # 

A Head Full Of Dreams Tabs

(ver. 1) Click to play this song!
Coldplay
 Rating:
3/5 (26 votes)

 A Head Full Of Dreams  lessons Tabs too difficult? Try these video lessons and learn fast
 
                Tuning: standard

0:28

e|--19-16--14--19-16--14-----------------------------------------------------|
B|---------------------------------------------------------------------------|
G|---------------------------------------------------------------------------|
D|---------------------------------------------------------------------------|
A|---------------------------------------------------------------------------|
E|---------------------------------------------------------------------------|

right afterwards

e|---------------------------------------------------------------------------------------------------|
B|--12-12-12-12-12-12-12-12-12-12-12-12-12-12-12-12-12-12-12-12-12-12-12-12-12-12-12-12-12-12-12-12--|
G|--11-11-11-11-11-11-11-11-11-11-11-11-11-11-11-11-11-11-11-11-11-11-11-11-11-11-11-11-11-11-11-11--|
D|---9--9--9--9--9--9--9--9--9--9--9--9--9--9--9--9--9--9--9--9--9--9--9--9--9--9--9--9--9--9--9--9--|
A|---------------------------------------------------------------------------------------------------|
E|---------------------------------------------------------------------------------------------------|

e|--12-12-12-12-12-12-12-12-12-12-12-12-12-12-12-12-12-12-12-12-12-12-12-12-12-12-12-12-12-12-12-12--|
B|--12-12-12-12-12-12-12-12-12-12-12-12-12-12-12-12-12-12-12-12-12-12-12-12-12-12-12-12-12-12-12-12--|
G|--11-11-11-11-11-11-11-11-11-11-11-11-11-11-11-11-11-11-11-11-11-11-11-11-11-11-11-11-11-11-11-11--|
D|---9--9--9--9--9--9--9--9--9--9--9--9--9--9--9--9--9--9--9--9--9--9--9--9--9--9--9--9--9--9--9--9--|
A|---------------------------------------------------------------------------------------------------|
E|---------------------------------------------------------------------------------------------------|

e|---------------------------------------------------------------------------------------------------|
B|--14-14-14-14-14-14-14-14-14-14-14-14-14-14-14-14-14-14-14-14-14-14-14-14-14-14-14-14-14-14-14-14--|
G|--14-14-14-14-14-14-14-14-14-14-14-14-14-14-14-14-14-14-14-14-14-14-14-14-14-14-14-14-14-14-14-14--|
D|--14-14-14-14-14-14-14-14-14-14-14-14-14-14-14-14-14-14-14-14-14-14-14-14-14-14-14-14-14-14-14-14--|
A|--12-12-12-12-12-12-12-12-12-12-12-12-12-12-12-12-12-12-12-12-12-12-12-12-12-12-12-12-12-12-12-12--|
E|---------------------------------------------------------------------------------------------------|

e|--------------------------------------------------------------------------------------|
B|--12-12-12-12-12-12-12-12-12-12-12-12-12-12-12-12-9-9-9-9-9-9-9-9-9-9-9-9-9-9-9-9-----|
G|--11-11-11-11-11-11-11-11-11-11-11-11-11-11-11-11-9-9-9-9-9-9-9-9-9-9-9-9-9-9-9-9-----| x5
D|---9--9--9--9--9--9--9--9--9--9--9--9--9--9--9--9-9-9-9-9-9-9-9-9-9-9-9-9-9-9-9-9-----|
A|--------------------------------------------------7-7-7-7-7-7-7-7-7-7-7-7-7-7-7-7-----|
E|--------------------------------------------------------------------------------------|

1:50

e|---------------------------------------------------------------------------|
B|--19----19----19-------------21----21----17--------------------------------|
G|-----16----16----16-16-18-20----20----20----20-18-16-----------------------| x16
D|---------------------------------------------------------------------------|
A|---------------------------------------------------------------------------|
E|---------------------------------------------------------------------------|

2:52

e|---------------------------------------------------------------------------------------------------|
B|--12-12-12-12-12-12-12-12-12-12-12-12-12-12-12-12-12-12-12-12-12-12-12-12-12-12-12-12-12-12-12-12--|
G|--11-11-11-11-11-11-11-11-11-11-11-11-11-11-11-11-11-11-11-11-11-11-11-11-11-11-11-11-11-11-11-11--|
D|---9--9--9--9--9--9--9--9--9--9--9--9--9--9--9--9--9--9--9--9--9--9--9--9--9--9--9--9--9--9--9--9--|
A|---------------------------------------------------------------------------------------------------|
E|---------------------------------------------------------------------------------------------------|

e|--12-12-12-12-12-12-12-12-12-12-12-12-12-12-12-12-12-12-12-12-12-12-12-12-12-12-12-12-12-12-12-12--|
B|--12-12-12-12-12-12-12-12-12-12-12-12-12-12-12-12-12-12-12-12-12-12-12-12-12-12-12-12-12-12-12-12--|
G|--11-11-11-11-11-11-11-11-11-11-11-11-11-11-11-11-11-11-11-11-11-11-11-11-11-11-11-11-11-11-11-11--|
D|---9--9--9--9--9--9--9--9--9--9--9--9--9--9--9--9--9--9--9--9--9--9--9--9--9--9--9--9--9--9--9--9--|
A|---------------------------------------------------------------------------------------------------|
E|---------------------------------------------------------------------------------------------------|

e|---------------------------------------------------------------------------------------------------|
B|--14-14-14-14-14-14-14-14-14-14-14-14-14-14-14-14-14-14-14-14-14-14-14-14-14-14-14-14-14-14-14-14--|
G|--14-14-14-14-14-14-14-14-14-14-14-14-14-14-14-14-14-14-14-14-14-14-14-14-14-14-14-14-14-14-14-14--|
D|--14-14-14-14-14-14-14-14-14-14-14-14-14-14-14-14-14-14-14-14-14-14-14-14-14-14-14-14-14-14-14-14--|
A|--12-12-12-12-12-12-12-12-12-12-12-12-12-12-12-12-12-12-12-12-12-12-12-12-12-12-12-12-12-12-12-12--|
E|---------------------------------------------------------------------------------------------------|

e|--------------------------------------------------------------------------------------|
B|--12-12-12-12-12-12-12-12-12-12-12-12-12-12-12-12-9-9-9-9-9-9-9-9-9-9-9-9-9-9-9-9-----|
G|--11-11-11-11-11-11-11-11-11-11-11-11-11-11-11-11-9-9-9-9-9-9-9-9-9-9-9-9-9-9-9-9-----| x2
D|---9--9--9--9--9--9--9--9--9--9--9--9--9--9--9--9-9-9-9-9-9-9-9-9-9-9-9-9-9-9-9-9-----|
A|--------------------------------------------------7-7-7-7-7-7-7-7-7-7-7-7-7-7-7-7-----|
E|--------------------------------------------------------------------------------------|            
Submit corrections


        A Head Full Of Dreams  lessons Hard to play? Try these video lessons and learn fast A Head Full Of Dreams  lessons
        
↑ Back to top | Tablatures and chords for acoustic guitar and electric guitar, ukulele, drums are parodies/interpretations of the original songs. You may use it for private study, scholarship, research or language learning purposes only