» » »

Coldplay - 42 Tabs

Artists:  A B C D E F G H I J K L M N O P Q R S T U V W X Y Z # 

42 Tabs

(ver. 1) Click to play this song!
Coldplay
 Rating:
4.3/5 (20 votes)

 42 lessons Tabs too difficult? Try these video lessons and learn fast
 
                F|--------------------------------0--0--0--|
F|-------(12)-(12)-----------(12)-0--0--0--|
F|-------(12)-(12)-----------(12)-0--0--0--|
F|-------(0)--(0)------------(0)--0--0--0--|           
F|--(0)--(0)--(0)--(0)--(0)--(0)--0--0--0--|
F|--(0)--(0)--(0)--(0)--(0)--(0)--0--0--0--|

F|---------------------------0--0--0--|
F|--(12)-(12)-----------(12)-0--0--0--|
F|--(12)-(12)-----------(12)-0--0--0--|              x2
F|--(0)--(0)------------(0)--0--0--0--|            
F|--(0)--(0)--(0)--(0)--(0)--0--0--0--|
F|--(0)--(0)--(0)--(0)--(0)--0--0--0--|

Prelude to main riff:

F|--15--15--15--15--15----------|
F|--15--15--15--15--15--17--12--|
F|--15--15--15--15--15--17--12--|
F|--12--12--12--12--12----------|
F|--12--12--12--12--12----------|
F|------------------------------|

Main Riff:

F|----------------------0----------------|
F|--16--12--14--12--12--14b15r14--12-12--|
F|--16--12--14--12--12--14b15r14--12-12--|    x2
F|--0---0---0---0---0---0---------0--0---|
F|--0---0---0---0---0---0---------0--0---|
F|--0---0---0---0---0---0---------0--0---|

Second part of main riff:

F|--------------0--|
F|--16--12--14--0--|
F|--16--12--14--0--|
F|--0---0---0---0--|
F|--0---0---0---0--|
F|--0---0---0---0--|

F|--15--|
F|--15--|
F|--15--|     Repeat chord as many times as needed
F|--12--|
F|--12--|
F|------|

F|-----------0---0---0---0---0---0----------------|
F|--17--12--16--12--14--12--12---14b15r14--12--12-|
F|--17--12--16--12--14--12--12---14b15r14--12--12-|
F|-----------0---0---0---0---0---0---------0---0--|
F|-----------0---0---0---0---0---0---------0---0--|
F|-----------0---0---0---0---0---0---------0---0--|

F|----------------------0------------------|
F|--16--12--14--12--12--14b15r14---12--12--|
F|--16--12--14--12--12--14b15r14---12--12--|             
F|--0---0---0---0---0---0----------0---0---|
F|--0---0---0---0---0---0----------0---0---|
F|--0---0---0---0---0---0----------0---0---|

F|--------------0--|
F|--16--12--14--0--|
F|--16--12--14--0--|
F|--0---0---0---0--|
F|--0---0---0---0--|
F|--0---0---0---0--|

F|--15--|
F|--15--|
F|--15--|     Repeat chord as many times as needed
F|--12--|
F|--12--|
F|------|

F|----------|
F|--17--12--|
F|--17--12--|    
F|----------|
F|----------|
F|----------|

Climax of song (turn on some light overdrive):

F|---------------------------|
F|---------------------------|
F|---------------------------|      x2
F|--8--7--5--4--4--10--4--4--|
F|--8--7--5--4--4--10--4--4--|
F|--8--7--5--4--4--10--4--4--|

F|---------------------------|
F|---------------------------|
F|---------------------------|   
F|--8--7--5--3--3--10--3--3--|
F|--8--7--5--3--3--10--3--3--|
F|--8--7--5--3--3--10--3--3--|

F|---------------------------|
F|---------------------------|
F|---------------------------|   
F|--8--7--5--2--2--10--2--2--|
F|--8--7--5--2--2--10--2--2--|
F|--8--7--5--2--2--10--2--2--|

F|---------------------------|
F|---------------------------|
F|---------------------------|     x2
F|--8--7--5--4--4--10--4--4--|
F|--8--7--5--4--4--10--4--4--|
F|--8--7--5--4--4--10--4--4--|

F|---------------------------|
F|---------------------------|
F|---------------------------|   
F|--8--7--5--3--3--10--3--3--|
F|--8--7--5--3--3--10--3--3--|
F|--8--7--5--3--3--10--3--3--|

F|---------------------------|
F|---------------------------|
F|---------------------------|    
F|--8--7--5--2--2--10--2--2--|
F|--8--7--5--2--2--10--2--2--|
F|--8--7--5--2--2--10--2--2--|

Rhythm (Chris sings):

F|-----------|
F|-----------|
F|-----------|
F|-----------|
F|-----------|
F|--3--3--3--|

You thought you might be a ghost

F|-----------------------------------|
F|-----------------------------------|
F|-----------------------------------|
F|-----------------------------------|
F|-----------------------------------|
F|--3--3--3--3--3--3--3--3--3--3--3--|

F|--------------|
F|--------------|
F|--------------|
F|--------------|
F|--------------|
F|--15--15--15--|

You thought you might be a ghost

F|-----------------------------------|
F|-----------------------------------|
F|-----------------------------------|
F|-----------------------------------|
F|-----------------------------------|
F|--3--3--3--3--3--3--3--3--3--3--3--|

F|--------------|
F|--------------|
F|--------------|
F|--------------|
F|--------------|
F|--15--15--15--|

You didn't get to heaven but you made it close

F|-----------------------------------|
F|-----------------------------------|
F|-----------------------------------|
F|-----------------------------------|
F|-----------------------------------|
F|--8--8--8--8--8--8--8--8--8--8--8--|

F|--------------|
F|--------------|
F|--------------|
F|--------------|
F|--------------|
F|--10--10--10--|

You didn't get to heaven but you made it close

F|-----------------------------------|
F|-----------------------------------|
F|-----------------------------------|
F|-----------------------------------|
F|-----------------------------------|
F|--8--8--8--8--8--8--8--8--8--8--8--|

F|--------------|
F|--------------|
F|--------------|
F|--------------|
F|--------------|
F|--15--15--15--|

You thought you might be a ghost

F|-----------------------------------|
F|-----------------------------------|
F|-----------------------------------|
F|-----------------------------------|
F|-----------------------------------|
F|--3--3--3--3--3--3--3--3--3--3--3--|

F|--------------|
F|--------------|
F|--------------|
F|--------------|
F|--------------|
F|--15--15--15--|

You thought you might be a ghost

F|-----------------------------------|
F|-----------------------------------|
F|-----------------------------------|
F|-----------------------------------|
F|-----------------------------------|
F|--3--3--3--3--3--3--3--3--3--3--3--|

F|--------------|
F|--------------|
F|--------------|
F|--------------|
F|--------------|
F|--15--15--15--|

You didn't get to heaven but you made it close

F|-----------------------------------|
F|-----------------------------------|
F|-----------------------------------|
F|-----------------------------------|
F|-----------------------------------|
F|--8--8--8--8--8--8--8--8--8--8--8--|

F|--------------|
F|--------------|
F|--------------|
F|--------------|
F|--------------|
F|--10--10--10--|

You didn't get to heaven but you oh-oh-oh oh-oh-oh

F|-----------------------------------|
F|-----------------------------------|
F|-----------------------------------|
F|-----------------------------------|
F|-----------------------------------|
F|--8--8--8--8--8--8--8--8--8--8--8--|

F|-----------|
F|-----------|
F|-----------|
F|-----------|
F|-----------|
F|--8--8--8--|

Solo:

F|----------------------------------------------|
F|--10--10--10--10--10--10--10--10--10--10--12--|
F|--10--10--10--10--10--10--10--10--10--10--12--|
F|----------------------------------------------|
F|----------------------------------------------|
F|----------------------------------------------|

F|----------------------------------------------|
F|--10--10--10--10--10--10--10--10--10--10--12--|
F|--10--10--10--10--10--10--10--10--10--10--12--|
F|----------------------------------------------|
F|----------------------------------------------|
F|----------------------------------------------|

F|-----------------------------------|
F|--3--3--3--3--3--3--3--3--3--5p0---|
F|--3--3--3--3--3--3--3--3--3--5p0---|
F|-----------------------------------|
F|-----------------------------------|
F|-----------------------------------|

F|----------------------------------|
F|--3--3--3--3--3--3--3--3--3--5p0--|
F|--3--3--3--3--3--3--3--3--3--5p0--|
F|----------------------------------|
F|----------------------------------|
F|----------------------------------|

F|----------------------------------------------|
F|--10--10--10--10--10--10--10--10--10--10--12--|
F|--10--10--10--10--10--10--10--10--10--10--12--|
F|----------------------------------------------|
F|----------------------------------------------|
F|----------------------------------------------|

F|----------------------------------------------|
F|--10--10--10--10--10--10--10--10--10--10--12--|
F|--10--10--10--10--10--10--10--10--10--10--12--|
F|----------------------------------------------|
F|----------------------------------------------|
F|----------------------------------------------|

F|----------------------------------|
F|--3--3--3--3--3--3--3--3--3--5p0--|
F|--3--3--3--3--3--3--3--3--3--5p0--|
F|----------------------------------|
F|----------------------------------|
F|----------------------------------|

F|-----------------------------------------|
F|--3--3--3--3--3--3--3--7--5--3--7--5--3--|
F|--3--3--3--3--3--3--3--7--5--3--7--5--3--|
F|-----------------------------------------|
F|-----------------------------------------|
F|-----------------------------------------|
            
Submit corrections


        42 lessons Hard to play? Try these video lessons and learn fast 42 lessons
        
↑ Back to top | Tablatures and chords for acoustic guitar and electric guitar, ukulele, drums are parodies/interpretations of the original songs. You may use it for private study, scholarship, research or language learning purposes only