» » »

Cold Chisel - Khe Sanh Bass

Artists:  A B C D E F G H I J K L M N O P Q R S T U V W X Y Z # 

Khe Sanh Bass

(ver. 1) Click to play this song!
Cold Chisel
 Rating:
4.3/5 (24 votes)

 Khe Sanh lessons Tabs too difficult? Try these video lessons and learn fast
 
                It's these two patterns throughout the entire sone: 1. Em - C - G / Em - C - D / Em - C - G - C / Am - F - D
                                                    2. Em - C - G / Em - C - D / Em - C - G - C / Am - D - G
In the outro chorus, it plays part 1 for the 1st "last plane out of Sydney..." and in the last 2
"last plane out of Sydney..." it plays part 2 twice
                                                    
PART 1:
G|--------|-------------|------------|-------------|-------------|--------------|
D|--------|-------------|------------|-------------|--5--5-4--4--|--2--2-2--0---|
A|--------|--7--7-7--5--|-3--3-3--5--|-------5--5--|-------------|--------------|
E|--3--2--|-------------|------------|--3--3-------|-------------|--------------|

G|-------------|-------------|-----------|-------------|------------|-------------|
D|-------------|-------------|-----------|-------------|------------|-------------|
A|--3--3-3-----|--5--5-------|-5--5-6-6--|--7--7-7--5--|-3--3-3--5--|-------5--2--|
E|-------------|--------5--5-|-----------|-------------|------------|--3--3-------|

G|-------------|------------|------------|-------------|-------------|
D|-------------|------------|------------|-------------|-------------|
A|--3--3-3--2--|--0--0-0----|------------|--5--5-------|--5--5-6--6--|
E|-------------|------------|--1--1-1----|-------5--5--|-------------|

PART 2:
G|-------------|------------|-------------|-------------|--------------|
D|-------------|------------|-------------|--5--5-4--4--|--2--2-2--0---|
A|--7--7-7--5--|-3--3-3--5--|-------5--5--|-------------|--------------|
E|-------------|------------|--3--3-------|-------------|--------------|

G|-------------|-------------|-----------|-------------|------------|-------------|
D|-------------|-------------|-----------|-------------|------------|-------------|
A|--3--3-3-----|--5--5-------|-5--5-6-6--|--7--7-7--5--|-3--3-3--5--|-------5--2--|
E|-------------|--------5--5-|-----------|-------------|------------|--3--3-------|

G|-------------|---------------|-------------|-------------|-------------|
D|-------------|---------------|----------2--|--5--5-------|-------------|
A|--3--3-3--2--|--0--0-0--5/7--|-5--5-5------|-------3--3--|-------------|
E|-------------|---------------|-------------|-------------|-3--3-2-2----|



OUTRO (END OF 2ND PART TWO):

G|-------|-------|-------|-------|-------|
D|--5----|-------|-------|-------|-------|
A|-------|--3----|-------|--3----|-------|
E|-------|-------|--3----|-------|--3----|            
Submit corrections


        Khe Sanh lessons Hard to play? Try these video lessons and learn fast Khe Sanh lessons
        
↑ Back to top | Tablatures and chords for acoustic guitar and electric guitar, ukulele, drums are parodies/interpretations of the original songs. You may use it for private study, scholarship, research or language learning purposes only