» » »

Cold - Gone Away Tabs

Artists:  A B C D E F G H I J K L M N O P Q R S T U V W X Y Z # 

Gone Away Tabs

(ver. 2) Click to play this song!
Cold
 Rating:
4/5 (4 votes)
                
This song was all done by my guitar teacher who then taught it to me.

(for the main riff use this chord position (bar with first finger))
e|---|
B|---|
G|-3-|
D|-1-|
A|-3-|
E|-1-|

Intro/Main Riff
e|---------------------------|
B|---------------------------|
G|---------3-----------3-----|
D|-----1-----------1-----1---|
A|---3---3-----------3-----3-|
E|-1---------1-3-4-----------|

Chorus (no strumming pattern)
e|------------|
B|------------|
G|----6-------|
D|-8--6--6--6-|
A|-8--4--6--6-|
E|-6-----4--3-|

Solo Dealy… (not 100% sure on but close)
e|---------------------------------------------|
B|---------------------------------------------|
G|-10-10-5--6--5-----------10-10-5--6--5--6--8-|
D|-x--x--x--x--x--8--6--5--x--x--x--x--x--x--x-|
A|-8--8--3--4--3--x--x--x--8--8--3--4--3--4--6-|
E|----------------6--4--3----------------------|

enjoy!
            
Submit corrections

↑ Back to top | Tablatures and chords for acoustic guitar and electric guitar, ukulele, drums are parodies/interpretations of the original songs. You may use it for private study, scholarship, research or language learning purposes only