Home » C » Cokelat »

Cokelat - Bendera Tabs

Artists:  A B C D E F G H I J K L M N O P Q R S T U V W X Y Z # 

Bendera Tabs

(ver. 1) Click to play this song!
Cokelat
Judul  Bendera
Artis  Coklat
Album  Rasa baru plus


Buat yang mau ngasih kritik and saran, email aja ke alamat di atas, 

Int:

    A                        D
|----------------------------------------|                            
|----------------------------------------|                         
|---666--------------------6666----777---|------------à diulang 2x 
|---777---6h7--diulang-3X--7777----777---|
|---777--------------------7777----555---|
|---555--------------------5555----xxx---| 

 Gitar 1
|---------------5~--5------------------5~--|
|---5-----5--7---------7--5-----5--77------|
|------6---------------------6-------------|----à diulang-ulang
|------------------------------------------|
|------------------------------------------|
|------------------------------------------| 
 |                           |
 |Gitar 2                    |
 |   A   B     C#      B     |
|-----------------------------|
|-----------------------------|
|-----------------------------| 
|-----------------------------|--à 2X
|--77X79-9-X9-1111X11-9-X9----|
|--55X57-7-X7-9-9-X9--7-X7----| 

Verse:

A                        B
Biar saja ku tak sehebat matahari
 D                        A                   E  G# A
Tapi s’lalu ku coba slalu tuk menghangatkanmu

(Tambahkan fill)

A                        B
Biar saja ku tak setegar batu karang        
 D                      A           E5
Tapi s’lalu ku coba tuk melundungimu
  
Int:

Gitar 1
|---------------5~--5------------------5~--|                     2|--9-10--|
|---5-----5--7---------7--5-----5--77------|                     3|--------|
|------6---------------------6-------------|----à diulang-ulang
|------------------------------------------|
|------------------------------------------|
|------------------------------------------| 
 |                           |
 |Gitar 2                    |
 |   A   B     C#      B     |
|-------------------------------|
|-------------------------------|
|-------------------------------| 
|-------------------------------| 
|--77X79-9-X9-1111X11-9-X9--67--|
|--55X57-7-X7-9-9-X9--7-X7--45--| 

Verse: (fill)

A                       B           
Biar saja ku tak seharum bunga mawar
 D                      A            E  G# A
Tapi s’lalu ku coba tuk mengharumkanmu
A                        B
Biar saja ku tak seelok langit sore
 D                      A            E5
Tapi s’lalu ku coba tuk mengingatkamu

Chours:

Kuperta...hankan kau demi kehormatan bangsa
|-------------------------|             
|-------------------------|             
|-------------------------|--àgitar 1             
|-----------------9---7---|             
|---4----7-----7----------|             
|---2----4-----5----------|             
                 |      |
               |-----------------|
               |-----------------|
               |--12--10---7-----|  ---àgitar 2   
               |---------------9-|
               |-----------------|
               |-----------------| 

Kuperta...hankan kau demi tumpah darah, s’mua pahlawan-pahlawanku....

|-------------------------------|
|-------------------------------|
|-------------------------------|--àgitar 1 
|-----------------7--9-999999---|
|--4----7----7----5--7-777777---|
|--2----4----5----X-------------| 
   |           |
|-------------------|
|-------------------|
|-------------------| ---àgitar 2
|---\gunakan-pick---|
|---\gunakan-pick---|
|-------------------| 

Reff

 A           E5            F#      E5 
Merah-putih teruslah kau berkibar
  D            C#          Bm            E5   
Di ujung tiang tertinggi, di Indonesiaku ini

 A            E5           F#     E5
Merah-putih teruslah kau berkibar
  D            C#          Bm            E5   
Di ujung tiang tertinggi, di Indonesiaku ini


 F#          G#            A
Merah-putih teruslah kau berkibar
 D             E             D
Ku akan slalu menjagamu.....

Solo:

|---------------------------|
|---------------------------|
|---------------------------| ----à4x
|---131313111111999888------|
|---------------------9999--|
|---------------------------| 

    A                        D
|----------------------------------------|
|----------------------------------------|
|---666--------------------6666----777---|
|---777-—-6h7—-diulang-3X--7777----777---|
|---777--------------------7777----555---|
|---555--------------------5555----xxx---| 


Verse: (fill)

A                       B                          
Biar saja ku tak seharum bunga mawar
 D                      A            E5 
Tapi s’lalu ku coba tuk mengharumkanmu
A                       B                          
Biar saja ku tak seelok langit sore
 D                      A           E5  
Tapi s’lalu ku coba tuk mengingatkamu

Chours:

Kuperta...hankan kau demi kehormatan bangsa

|-------------------------|             
|-------------------------|             
|-------------------------|--àgitar 1             
|-----------------9---7---|             
|---4----7-----7----------|             
|---2----4-----5----------|             
                 |      |
               |-----------------|
               |-----------------|
               |--12--10---7-----|  ---àgitar 2   
               |---------------9-|
               |-----------------|
               |-----------------| 

Kuperta...hankan kau demi tumpah darah, s’mua pahlawan-pahlawanku....

|-------------------------------|
|-------------------------------|
|-------------------------------| 
|----------------7---9-999999---|
|--4----7----7---5---7-777777---|
|--2----4----5---X--------------| 

Reff

 A5          E5            F#      E5 
Merah-putih teruslah kau berkibar
  D            C#          Bm            E5   
Di ujung tiang tertinggi, di Indonesiku ini
 A5           E5           F#     E5
Merah-putih teruslah kau berkibar
  D            C#          Bm            E5   
Di ujung tiang tertinggi, di Indonesiku ini

 F#           G#           A
Merah-putih teruslah kau berkibar
 D             E            F#`  G#`  
Ku akan slalu menjagamu.....
D           E  D 
Ho........oooo

Fill: (mutt)distortion

|---------------------------------------|
|---------------------------------------|
|----------------------------------4----|
|----4-6---4-6-4-6-diulang-ulang-----6--|
|--5-----5------------------------------| 
|---------------------------------------| 


Key tab~

h     = pull-on
/     = slide-down
\     = slide-up
~     = vibrato

---------------------------------Index---------------------------------------

  A   A5  E   E5   F#`    G#`
|-5-------7---0----x-----x---|             
|-7---0---9---2----9-----11--|             
|-7---2---9---2----11----13--|           
|-----2----------------------|            
|----------------------------|
|----------------------------|


-end of tab-

------------------------------GOOD LUCK--------------------------------------
            
Submit corrections

↑ Back to top | Tablatures and chords for acoustic guitar and electric guitar, ukulele, drums are parodies/interpretations of the original songs. You may use it for private study, scholarship, research or language learning purposes only