» » »

Coheed And Cambria - Mother Superior Tabs

Artists:  A B C D E F G H I J K L M N O P Q R S T U V W X Y Z # 

Mother Superior Tabs

(ver. 1) Click to play this song!
Coheed And Cambria
 Rating:
4/5 (4 votes)

 Mother Superior lessons Tabs too difficult? Try these video lessons and learn fast
 
                Intro
e|-----------------------------------------------|
b|-----------------------------------------------|
g|--------0---------------------0-0--------------|
d|------3--3--------7---------7--7-----10/12-----|
a|--3h5------5-5------8-7-7h8--------8-----------|
e|-----------------------------------------------|


e|-----------------------------------------|
b|-----------------------------------------|
g|----------------------------0------------|
d|---------2--3b--2--0-----3---------------|
a|--3--5----------------1--------1--0------|
e|-------------------------------------3---|

Chorus
e|--0-----0------------|
b|--3-----0------------|
g|--2----\1---3--/5-\--|
d|--0-----0---3--/5-\--|  pause at 3 the first time then play 5 and slide 
a|--0---------1--/3-\--|           1                          3
e|--0------------------|  half way there

Verse
e|-------------|
b|-------------|
g|-------------|  move ur fingers up and down
d|-3--7--7--5--|
a|-3--5--7--3--|
e|-1-----5-----|
   .  .  .  .
Bridge
e|-------------|
b|-------------|
g|-3-/5--------|
d|-3-/5--3--7--|
a|-1-/3--3--5--|
e|-------1-----|

Bridge Part 2
e|--------------|
b|--------------|
g|-3--3--/5--5--|
d|-3--3--/5--5--|
a|-1--1--/3--3--|
e|--------------|

Outro
e|--------------------------|
b|--------------------------|
g|--------------------------|     
d|--8--5--8--5--8--5--3-----|
a|--8--5--8--5--8--5--3--3--|
e|--6--3--6--3--6--3--1--0--|



[Intro]x6
[Chorus]x2 (but the second time you don't pause at 3, and just keep playing)
                                                   1
[Verse]x2
[Bridge]x2
[Bridge Part 2] (stop half way through the 5)
                                           3
[Intro]x6  
[Chorus]x2 (just stop when you hit 5 and don't pause at 3)
                                   3                    1
[Verse]x2
[Bridge]x2
[Bridge Part 2] (just stop at the second 5)
                                         3
[Outro]x2 (then hit the first chord in the chorus one time and your done)
            
Submit corrections


        Mother Superior lessons Hard to play? Try these video lessons and learn fast Mother Superior lessons
        
↑ Back to top | Tablatures and chords for acoustic guitar and electric guitar, ukulele, drums are parodies/interpretations of the original songs. You may use it for private study, scholarship, research or language learning purposes only