» » »

Cody Johnson Band - The Man You Though I'd Never Be Tabs

Artists:  A B C D E F G H I J K L M N O P Q R S T U V W X Y Z # 

The Man You Though I'd Never Be Tabs

(ver. 1) Click to play this song!
Cody Johnson Band
 Rating:
4/5 (4 votes)

 The Man You Though I'd Never Be lessons Tabs too difficult? Try these video lessons and learn fast
 
                



e)----------------------------------------------------------------3----
b)----------------------------------------------------------------3----
g)---------5/7--5/7-----------------5/7--5/7----------------------x----
d)-----5---7/9--7/9---7--5----------7/9--7/9---7--5---------------2----
a)-5h7--------------------7--5----------------------7--5------3---3----
e)---------------------------------------------------------------------

Thats a Cadd9 at the end, you can pick the strings individually to make it sound better.

Again...

e)----------------------------------------------------------------3----
b)----------------------------------------------------------------3----
g)---------5/7--5/7-----------------5/7--5/7---------------------------
d)-----5---7/9--7/9---7--5----------7/9--7/9---7--5---------------2----
a)-5h7--------------------7--5----------------------7--5------3---3----
e)---------------------------------------------------------------------





My first tab. Hope you like it!
            
Submit corrections


        The Man You Though I'd Never Be lessons Hard to play? Try these video lessons and learn fast The Man You Though I'd Never Be lessons
        
↑ Back to top | Tablatures and chords for acoustic guitar and electric guitar, ukulele, drums are parodies/interpretations of the original songs. You may use it for private study, scholarship, research or language learning purposes only