Home » C » Code Of Silence »

Code Of Silence - Our Safety Tabs

Artists:  A B C D E F G H I J K L M N O P Q R S T U V W X Y Z # 

Our Safety Tabs

(ver. 1) Click to play this song!
Code Of Silence
e|---------------------------------------------------------------------------|
B|-----------4---5-----7---5---4h5p4-----------4---5-----7---5---4h5p4-------|
G|-----6---------------------------------6-----------------------------------|
D|---------------------------------------------------------------------------|
A|-4-4---4-4---4---4-4---4---4-------4-4---4-4---4---4-4---4---4-------------|
E|---------------------------------------------------------------------------|
   x x   x x   x   x x   x   x       x x   x x   x   x x   x   x

e|---------------2-----2-----------------------------------------------------|
B|-----------5-------------5---4h5-------4-5---4-5-----4-5-7-5-4-------------|
G|-----4-----------------------------2-2-----2-----4-4-----------------------|
D|---------------------------------------------------------------------------|
A|-2-2---2-2---2---2-2---2---2-----------------------------------------------|
E|---------------------------------------------------------------------------|
   x x   x x   x   x x   x   x

e|---------------------------------------------------------------------------|
B|-----5-4-------------5-4---------------5-5-5-3-3-3-2-2-2-------------------|
G|-6-6-----6-4-6---6-6-----6-4-6---2-2-2-------------------------------------|
D|---------------------------------------------------------------------------|
A|---------------------------------------------------------------------------|
E|---------------------------------------------------------------------------|


e|---------------------------------4-4-4-2-2-2-0-0-0-------------------------|
B|-----7-5-4---4-------7-5-4---4---------------------4h5p4-0-----------------|
G|-4-4-------6-----4-4-------6-----------------------------------------------|
D|---------------------------------------------------------------------------|
A|---------------------------------------------------------------------------|
E|---------------------------------------------------------------------------|            
Submit corrections

↑ Back to top | Tablatures and chords for acoustic guitar and electric guitar, ukulele, drums are parodies/interpretations of the original songs. You may use it for private study, scholarship, research or language learning purposes only