Home » C » Code Of Silence »

Code Of Silence - Angel Of Fury Tabs

Artists:  A B C D E F G H I J K L M N O P Q R S T U V W X Y Z # 

Angel Of Fury Tabs

(ver. 1) Click to play this song!
Code Of Silence
Band:Code of Silence
Album:Solid
Tunning:Standard

this is a song by me and my band but we havnt gotten signed yet
this is a great song in my opinion but then again i wrote it so try
it out and make something out of it

INTRO

E--------------------------------------------------|
B--------------------------------------------------|
G--------------------------------------------------|
D--------------------------------------------------|
A-----0h3h5------0h3h5----0h3h5------0h3h5---X2----|
E--0-3------0---3------0-3------0---3--------------|

VERSE


E--------------------------------------------------|
B--------------------------------------------------|
G--------------------------------------------------|
D--------------------------------------------------|
A-----0h3h5------0h3h5----0h3h5------0h3h5---X4----|
E--0-3------0---3------0-3------0---3--------------|

CHORUS

E------------------------------------------|
B------------------------------------------|
G------------------------------------------|
D--------5-5-0--7-----5-5-0--9-----X3------|
A--14/---5-5-0--7-----5-5-0--9-------------|
E--14/---3-3-0--5-----3-3-0--7-------------|

VERSE


E--------------------------------------------------|
B--------------------------------------------------|
G--------------------------------------------------|
D--------------------------------------------------|
A-----0h3h5------0h3h5----0h3h5------0h3h5---X4----|
E--0-3------0---3------0-3------0---3--------------|


CHORUS

E------------------------------------------|
B------------------------------------------|
G------------------------------------------|
D--------5-5-0--7-----5-5-0--9-----X3------|
A--14/---5-5-0--7-----5-5-0--9-------------|
E--14/---3-3-0--5-----3-3-0--7-------------|


VERSE


E--------------------------------------------------|
B--------------------------------------------------|
G--------------------------------------------------|
D--------------------------------------------------|
A-----0h3h5------0h3h5----0h3h5------0h3h5---X4----|
E--0-3------0---3------0-3------0---3--------------|


SOLO

E-T16p12h14-T16p12h16-T16p12h14-T16p12h14-T16p12h14-T16p12h14-T16p12h14-T16p12h14-----|
B-------------------------------------------------------------------------------------|
G-------------------------------------------------------------------------------------|
D-------------------------------------------------------------------------------------|
A-------------------------------------------------------------------------------------|
E-------------------------------------------------------------------------------------|

E-T18p12h14-T18p12h14-T18p12h14-T18p12h14-T18p12h14-T18p12h14-T18p12h14-T18p12h14------|
B--------------------------------------------------------------------------------------|
G--------------------------------------------------------------------------------------|
D--------------------------------------------------------------------------------------|
A--------------------------------------------------------------------------------------|
E--------------------------------------------------------------------------------------|

E-12s10-10s8-8s6-6s4-4h6-------------------------------------------------|
B----------------------------7-7-5-5h7-7-7-5-5h7--9-9-7-7h9-9-9-7-7h9----|
G---------------------------5-5-5-5---5-5-5-5----7-7-7-7---7-7-7-7-------|
D------------------------------------------------------------------------|
A---------------------------------------------------------------------4--|
E---------------------------------------------------------------------2--|


VERSE


E--------------------------------------------------|
B--------------------------------------------------|
G--------------------------------------------------|
D--------------------------------------------------|
A-----0h3h5------0h3h5----0h3h5------0h3h5---X4----|
E--0-3------0---3------0-3------0---3--------------|


CHORUS

E------------------------------------------|
B------------------------------------------|
G------------------------------------------|
D--------5-5-0--7-----5-5-0--9-----X3------|
A--14/---5-5-0--7-----5-5-0--9-------------|
E--14/---3-3-0--5-----3-3-0--7-------------|

OUTRO

E--------------------------------------------------|
B--------------------------------------------------|
G--------------------------------------------------|
D--------------------------------------------------|
A-----0h3h5------0h3h5----0h3h5------0h3h5---X2----|
E--0-3------0---3------0-3------0---3------------0-|
            
Submit corrections

↑ Back to top | Tablatures and chords for acoustic guitar and electric guitar, ukulele, drums are parodies/interpretations of the original songs. You may use it for private study, scholarship, research or language learning purposes only