Home » C » Cocteau Twins »

Cocteau Twins - Wax And Wane Bass

Artists:  A B C D E F G H I J K L M N O P Q R S T U V W X Y Z # 

Wax And Wane Bass

(ver. 2) Click to play this song!
Cocteau Twins
 Rating:
4/5 (4 votes)
                sounds good with some chorus and reverb ;)


G|-------12-12-------12-12-------12-12-------12-12-------|
D|-10-10-------10-10-------10-10-------10-10-------------|
A|-------------------------------------------------------|
E|-------------------------------------------------------|

G|-------10-10-------10-10-------10-10-------10-10-------|
D|-8--8--------8--8--------8--8--------8--8--------------|
A|-------------------------------------------------------|
E|-------------------------------------------------------|

G|-------------------------------------------------------|
D|-2--2--2--2-3-2-0---2-3-3-2--2--2--2-3-2-0---2-3-3-----|
A|------------------3------------------------3-----------|
E|-------------------------------------------------------|

Ricardo Santos
            
Submit corrections

↑ Back to top | Tablatures and chords for acoustic guitar and electric guitar, ukulele, drums are parodies/interpretations of the original songs. You may use it for private study, scholarship, research or language learning purposes only