Home » C » Cocteau Twins »

Cocteau Twins - Bluebeard Tabs

Artists:  A B C D E F G H I J K L M N O P Q R S T U V W X Y Z # 

Bluebeard Tabs

(ver. 2) Click to play this song!
Cocteau Twins
Tuning: E

e|---------9------9-------------------------------------------------------------|
B|--9/11------11-----11----------------------9------9---------------------------|
G|-----------------------13\---6/8----8/10------10-----10---------6/8-----------|
D|---------------------------------------------------------13\------------------|
A|------------------------------------------------------------------------------|
E|------------------------------------------------------------------------------|

e|---------9------9-------------------------------------------------------------|
B|--9/11------11-----11----------------------9------9---------------------------|
G|-----------------------13\---6/8----8/10------10-----10---------11/13--13\11--|
D|---------------------------------------------------------13\------------------|
A|------------------------------------------------------------------------------|
E|------------------------------------------------------------------------------|            
Submit corrections

↑ Back to top | Tablatures and chords for acoustic guitar and electric guitar, ukulele, drums are parodies/interpretations of the original songs. You may use it for private study, scholarship, research or language learning purposes only