Home » C » Cocoon »

Cocoon - Milky Chance Tabs

Artists:  A B C D E F G H I J K L M N O P Q R S T U V W X Y Z # 

Milky Chance Tabs

(ver. 1) Click to play this song!
Cocoon
[basic chord riff - plays through whole song] listen for strum pattern

e|----3--2--0--3------------|
B|----5--4--0--3------------|
G|----5--4--0--4------------|
D|----5--4--2--5------------|
A|----3--2--2--5------------|
E|----3--2--0--3------------|

[riff solo on chorus]

e|--3(p)0-------2-------|---------------3------------------------------|
B|----------------4(p)0-|---5(p)0----------3---------------------------|
G|---------5\4----------|---------------------4------------------------|
D|----------------------|----------4/5---------------------------------|
A|----------------------|----------------------------------------------|
E|----------------------|----------------------------------------------|


[riff solo on bridge]

e|----------------8--7--------|---------------7--10----------------------------|
B|----------8h10--------10--8-|---------8h10--------10--8----------------------|
G|---9---9--------------------|---9---9----------------------------------------|
D|----------------------------|------------------------------------------------|
A|----------------------------|------------------------------------------------|
E|----------------------------|------------------------------------------------|

            
Submit corrections

↑ Back to top | Tablatures and chords for acoustic guitar and electric guitar, ukulele, drums are parodies/interpretations of the original songs. You may use it for private study, scholarship, research or language learning purposes only