» » »

Cobra Starship - The Ballad Of Big Poppa And Diamond Girl Tabs

Artists:  A B C D E F G H I J K L M N O P Q R S T U V W X Y Z # 

The Ballad Of Big Poppa And Diamond Girl Tabs

(ver. 1) Click to play this song!
Cobra Starship
 Rating:
4/5 (4 votes)

 The Ballad Of Big Poppa And Diamond Girl lessons Tabs too difficult? Try these video lessons and learn fast
 
                -------------------------------------------------------------------------------
-------------------------------------------------------------------------------

Tuning: Regular

So far I have only figured out the Verse and the Chorus.  If you have any other 

Light Distortion

Verse
e|---5-5----5----5-5----5----5-5----5----5-5----5----------------------------|
B|---6-6----6----6-6----6----5-5----5----5-5----5----------------------------|
G|---7-7----7----7-7----7----5-5----5----5-5----5---------------------x2-----|
D|---7-7----7----7-7----7----7-7----7----7-7----7----------------------------|
A|---5-5----5----5-5----5----7-7----7----7-7----7----------------------------|
E|---x-x----x----x-x----x----5-5----5----5-5----5----------------------------|

e|---5-5-5-5-5-5-5-5-5-5-5-5--5-5-5-5-5-5-5-5-5-5-5-5------------------------|
B|---6-6-6-6-6-6-6-6-6-6-6-6--5-5-5-5-5-5-5-5-5-5-5-5-----------------x2-----|
G|---7-7-7-7-7-7-7-7-7-7-7-7--5-5-5-5-5-5-5-5-5-5-5-5------------------------|
D|---7-7-7-7-7-7-7-7-7-7-7-7--7-7-7-7-7-7-7-7-7-7-7-7------------------------|
A|---5-5-5-5-5-5-5-5-5-5-5-5--7-7-7-7-7-7-7-7-7-7-7-7------------------------|
E|---x-x-x-x-x-x-x-x-x-x-x-x--5-5-5-5-5-5-5-5-5-5-5-5------------------------|
            
Submit corrections


        The Ballad Of Big Poppa And Diamond Girl lessons Hard to play? Try these video lessons and learn fast The Ballad Of Big Poppa And Diamond Girl lessons
        
↑ Back to top | Tablatures and chords for acoustic guitar and electric guitar, ukulele, drums are parodies/interpretations of the original songs. You may use it for private study, scholarship, research or language learning purposes only