» » »

Cobra Starship - Snakes On A Plane (Bring It) Tabs

Artists:  A B C D E F G H I J K L M N O P Q R S T U V W X Y Z # 

Snakes On A Plane (Bring It) Tabs

(ver. 2) Click to play this song!
Cobra Starship
 Rating:
4/5 (4 votes)

 Snakes On A Plane (Bring It) lessons Tabs too difficult? Try these video lessons and learn fast
 
                I took a shot at making this tab. This is my first tab so I tried my best to make it 
good.


(intro)


Verse 1

e|----------------------------------|
B|----------------------------------|
G|--------------------------6-6--6--|
D|--5-5--5--5-5--5--7-7--7--x-x--x--|
A|--x-x--x--x-x--x--x-x--x--4-4--4--|
E|--3-3--3--3-3--3--5-5--5----------|

pre-chorus

e|----------------------------|
B|----------------------------|
G|----------------------------|
D|-xxxx-5-7-2-xxxx-2-xxxxx-4--|  X4
A|-xxxx-------xxxx---xxxxx----|
E|----------------------------|


Chorus

e|-------------------------------|
B|-------------------------------|
G|-------------------------------|
D|-3-------5------7------6-------|
A|-3-x16---5-x16--7-x16--6-x16---|
E|-1-------3------5------4-------|


Post Chorus
(this part was kinda hard to fingure out but I tried my best)

e|--------------------------------------------|
B|--------------------------------------------|
G|-----0----2-----4-44-4-44-4--6-66-6-66-6----|
D|-55--x-x8-x-x4--x-xx-x-xx-x--x-xx-x-xx-x----|
A|-xx--0----0-----2-22-2-22-2--4-44-4-44-4----|
E|-33-----------------------------------------|
                    ••   ••      ••   ••


Verse 2

e|----------------------------------|
B|----------------------------------|
G|--------------------------6-6--6--|
D|--5-5--5--5-5--5--7-7--7--x-x--x--|
A|--x-x--x--x-x--x--x-x--x--4-4--4--|
E|--3-3--3--3-3--3--5-5--5----------|


pre-chorus

e|----------------------------|
B|----------------------------|
G|----------------------------|
D|-xxxx-5-7-2-xxxx-2-xxxxx-4--|  X4
A|-xxxx-------xxxx---xxxxx----|
E|----------------------------|


Chorus

e|-------------------------------|
B|-------------------------------|
G|-------------------------------| X2
D|-3-------5------7------6-------|
A|-3-x16---5-x16--7-x16--6-x16---|
E|-1-------3------5------4-------|



Bridge
(bass only)


Chorus

e|-------------------------------|
B|-------------------------------|
G|-------------------------------|
D|-3-------5------7------6-------|
A|-3-x16---5-x16--7-x16--6-x16---|
E|-1-------3------5------4-------|


Well I'm done. I hope you enjoy. Any suggestions e-mail me. Comment please.
            
Submit corrections


        Snakes On A Plane (Bring It) lessons Hard to play? Try these video lessons and learn fast Snakes On A Plane (Bring It) lessons
        
↑ Back to top | Tablatures and chords for acoustic guitar and electric guitar, ukulele, drums are parodies/interpretations of the original songs. You may use it for private study, scholarship, research or language learning purposes only