Home » C » Cn Blue »

Cn Blue - Still In Love Bass

Artists:  A B C D E F G H I J K L M N O P Q R S T U V W X Y Z # 

Still In Love Bass

(ver. 1) Click to play this song!
Cn Blue
CNBLUE - Ajig Saranghanda(Still in Love) [Bass Tab]

Didn't see a Bass version of this tab here so I decided to tab one  myself
Listen to the song for the strumming patterns during the chorus.
Enjoy!
-Jester_Head_

Intro/VERSE 1:

----------------------------------------------------------------------------|
----------------------------------------------------------------------------|
--2--2------------1--2--4----2--2-------------------------------------------|
-------3--3-5---2-----------------3--3-5--2~--------------------------------|

PRE-CHORUS:

-----------------------------------------------------------------------------|
--------4---------------------------------------2----------------------------|
--2--5-----5-----2--5---------7--5--------4--1-------------------------------|
--------------3--------3--5---------5--2-------------------------------------|

-----------------------------------------------------------------------------|
-----------0--------------------2--------------------------------------------|
--2-----2--------2--5--------4-----4-----------------------------------------|
-----2--------3--------3--5-----------2-------2(x11)-------------------------|

CHORUS:

----------------------------------------4------------------------------------|
--------------------------------------4---4----------------------------------|
----4(x8)---7(x8)-------------------2----------------------------------------|
-----------------2(x8)--2--2--2-2--------------------------------------------|

-----------------------------------------------------------------------------|
-----------------------------------------------------------------------------|
----4(x8)---7(x8)-------------------2--3-------------------------------------|
-----------------2(x8)--2--2--2-2--------------------------------------------|

VERSE 2:

-----------------------------------------------------------------------------|
-----------------------------------------------------------------------------|
--2--2------------1--2--4----2--2---2----------------------------------------|
-------3--3-5---2---------------------3--3---3--5--5--2~---------------------|


PRE-CHORUS:

-----------------------------------------------------------------------------|
--------4---------------------------------------2----------------------------|
--2--5-----5-----2--5---------7--5--------4--1-------------------------------|
--------------3--------3--5---------5--2-------------------------------------|

-----------------------------------------------------------------------------|
-----------0--------------------2--------------------------------------------|
--2-----2--------2--5--------4-----4-----------------------------------------|
-----2--------3--------3--5-----------2-------2(x11)-------------------------|


CHORUS 2/GUITAR SOLO:

----------------------------------------4------------------------------------|
--------------------------------------4---4----------------------------------|
----4(x8)---7(x8)-------------------2----------------------------------------|
-----------------2(x8)--2--2--2-2--------------------------------------------|

----------------------------------------4------------------------------------|
--------------------------------------4---4----------------------------------|
----4(x8)---7(x8)-------------------2----------------------------------------|
-----------------2(x8)--2--2--2-2--------------------------------------------|

POST SOLO:

----------------------------------------------4------------------------------|
--------------------------------------------4---4----------------------------|
--4~----4----7~----7----9~-----9----------2----------------------------------|
------4----------7-----------9------2--2-------------------------------------|

CHORUS 3/OUTRO:

----------------------------------------4------------------------------------|
--------------------------------------4---4----------------------------------|
----4(x8)---7(x8)-------------------2----------------------------------------|
-----------------2(x8)--2--2--2-2--------------------------------------------|

-----------------------------------------------------------------------------|
-----------------------------------------------------------------------------|
----4(x8)---7(x8)-------------------2--3--4----------------------------------|
-----------------2(x8)--2--2--2-2--------------------------------------------|
            
Submit corrections

↑ Back to top | Tablatures and chords for acoustic guitar and electric guitar, ukulele, drums are parodies/interpretations of the original songs. You may use it for private study, scholarship, research or language learning purposes only