Home » C » Clouseau »

Clouseau - Heel Alleen Bass

Artists:  A B C D E F G H I J K L M N O P Q R S T U V W X Y Z # 

Heel Alleen Bass

(ver. 1) Click to play this song!
Clouseau
 Rating:
4.3/5 (29 votes)
                [Intro ]
   Rest       Rest       bend
G|----------|----------|----------|----------|----------|----------|----------|----------||
D|----------|----------|----------|----------|----------|----------|----------|----------||
A|----------|----------|----------|----------|----------|--0----0--|----------|--0----0--||
E|----------|----------|-0--------|-(0)------|-0---0----|----------|-0---0----|----------||


[Verse 1]
    q  We hebben weer eens ... then REST X15
G|----------|                     |----------|
D|----------|                     |----------|
A|----------|                     |----------|
E|-0--------|                     |----------|

    Ik zie het zus, ...
G|----------|----------|----------|----------||
D|----------|----------|----------|-0---0----||
A|----------|-0---0----|-2---2----|----------||
E|-3---3----|----------|----------|----------||


[Chorus]
Ik sta heel alleen ...
G|----------|----------|----------|----------|----------|
D|----------|----------|----------|----------|-0---0----|
A|----------|----------|----------|-0---0----|----------|
E|-3---3----|-3---3----|-3---3----|----------|----------|

Ik sta heel alleen ...
G|----------|----------|----------|----------|----------||
D|----------|----------|----------|----------|-0---0----||
A|----------|----------|----------|-0---0----|----------||
E|-3---3----|-3---3----|-3---3----|----------|----------||


[Interlude]
   bend                  bend                       
G|----------|----------|----------|----------||
D|----------|----------|----------|----------||
A|----------|----------|----------|----------||
E|-0--------|-(0)------|-0--------|-(0)------||


[Verse 2]
     Loze woorden ...
G|----------|----------|
D|----------|----------|     X4
A|----------|-0---0----|
E|-0---0----|----------|

    Jij ziet het zo, ...
G|----------|----------|----------|----------||
D|----------|----------|----------|-0---0----||
A|----------|-0---0----|-2---2----|----------||
E|-3---3----|----------|----------|----------||


[Chorus]
Ik sta heel alleen ...
G|----------|----------|----------|----------|----------|
D|----------|----------|----------|----------|-0---0----|
A|----------|----------|----------|-0---0----|----------|
E|-3---3----|-3---3----|-3---3----|----------|----------|

Ik sta heel alleen ...
G|----------|----------|----------|----------|----------||
D|----------|----------|----------|----------|-0---0----||
A|----------|----------|----------|-0---0----|----------||
E|-3---3----|-3---3----|-3---3----|----------|----------||


[Solo]
     
G|----------|----------|
D|----------|----------|     X4
A|----------|-0---0----|
E|-0---0----|----------|

    Maar, jij ziet het zus, ...
G|----------|----------|----------|----------||
D|----------|----------|----------|-0---0----||
A|----------|-0---0----|-2---2----|----------||
E|-3---3----|----------|----------|----------||


[Outro]
Ik sta heel alleen ...
G|----------|----------|----------|----------|----------|
D|----------|----------|----------|----------|----------|
A|----------|----------|----------|----------|----------|
E|-3--------|----------|----------|----------|----------|

Ik sta heel alleen ...
G|----------|----------|----------|----------|----------|
D|----------|----------|----------|----------|-0---0----|
A|----------|----------|----------|-0---0----|----------|
E|-3---3----|-3---3----|-3---3----|----------|----------|

Ik sta heel alleen ...                                    short
G|----------|----------|----------|----------|----------|----------||
D|----------|----------|----------|----------|-0---0----|----------||
A|----------|----------|----------|-0---0----|----------|----------||
E|-3---3----|-3---3----|-3---3----|----------|----------|-3--------||            
Submit corrections

↑ Back to top | Tablatures and chords for acoustic guitar and electric guitar, ukulele, drums are parodies/interpretations of the original songs. You may use it for private study, scholarship, research or language learning purposes only