» » »

Clouseau - Close Encounters Tabs

Artists:  A B C D E F G H I J K L M N O P Q R S T U V W X Y Z # 

Close Encounters Tabs

(ver. 1) Click to play this song!
Clouseau
 Rating:
4.3/5 (23 votes)

 Close Encounters lessons Tabs too difficult? Try these video lessons and learn fast
 
                Intro

e|------------------------------------------------|
B|------------------------------------------------|
G|------10--------9--------10--------10--------10-|  (x2)
D|---10--------10-------10--------10--------10----|
A|-8---------7-------8---------13---------8-------|
E|------------------------------------------------|

e|-------------------------------------------------------|
B|-------11---------10----------11---------11---------11-|
G|----10---------10----------12---------12---------10----|  (x2)
D|-12---------10---------12----------13---------12-------|
A|-------------------------------------------------------|
E|-------------------------------------------------------|


Bridge

e|--------------------------------------------------------|
B|--------------------------------------------------------|
G|------10----------9----------10----------9---------7----|  (x2)
D|---10----10----10---10----10----10----10---10----7---7--|
A|-8-----------7----------8-----------7----------5--------|
E|--------------------------------------------------------|

e|---------------|
B|---------------|
G|-----7-------9-| 
D|---7------10---|
A|-5------7------|
E|---------------|


Chorus

e|-------------------------------------------------|
B|-------------------------------------------------|
G|------10--------9---------10--------10--------10-|  (x2)
D|---10--------10--------10--------10--------10----|
A|-8---------7-------8----------13---------8-------|
E|-------------------------------------------------|

e|-------------------------------------------------------|
B|-------11---------10----------11---------11---------11-|
G|----10---------10----------12---------12---------10----|  (x2)
D|-12---------10---------12----------13---------12-------|
A|-------------------------------------------------------|
E|-------------------------------------------------------|


Bridge

e|--------------------------------------------------------|
B|--------------------------------------------------------|
G|------10----------9----------10----------9---------7----|  (x2)
D|---10----10----10---10----10----10----10---10----7---7--|
A|-8-----------7----------8-----------7----------5--------|
E|--------------------------------------------------------|

e|-------------------------|
B|-------8-----------------|
G|-----7--------9-------10-| 
D|---7-------10------10----|
A|-5-------7-------8-------|
E|-------------------------|


Solo

e|---------------------------------------|
B|-------11--10h11p10--------------------|
G|----10---------------12--10--12b14--10-|  
D|-8-------------------------------------|
A|---------------------------------------|
E|---------------------------------------|

e|-----------------------------------------|
B|-15-15-15-15-15-15-/-13-13-13-/-11-11-10-|
G|-----------------------------------------|
D|-----------------------------------------|
A|-----------------------------------------|
E|-----------------------------------------|

e|------------------------------------------|
B|------------------------------------------|
G|-----17--15--14h15p14---------------------|
D|-15--------------------17--15----------15-|
A|-------------------------------17--17-----|
E|------------------------------------------|


Chorus

e|-------------------------------------------------------|
B|-------11---------10----------11---------11---------11-|
G|----10---------10----------12---------12---------10----|  (x2)
D|-12---------10---------12----------13---------12-------|
A|-------------------------------------------------------|
E|-------------------------------------------------------|


Bridge

e|--------------------------------------------------------|
B|--------------------------------------------------------|
G|------10----------9----------10----------9---------7----|  (x2)
D|---10----10----10---10----10----10----10---10----7---7--|
A|-8-----------7----------8-----------7----------5--------|
E|--------------------------------------------------------|

e|-------------------------|
B|-------8-----------------|
G|-----7--------9-------10-| 
D|---7-------10------10----|
A|-5-------7-------8-------|
E|-------------------------|


Outro

e|-------------------------------------------------|
B|-------------------------------------------------|
G|------10--------9---------10--------10--------10-|  (x2)
D|---10--------10--------10--------10--------10----|
A|-8---------7-------8----------13---------8-------|
E|-------------------------------------------------|
            
Submit corrections


        Close Encounters lessons Hard to play? Try these video lessons and learn fast Close Encounters lessons
        
↑ Back to top | Tablatures and chords for acoustic guitar and electric guitar, ukulele, drums are parodies/interpretations of the original songs. You may use it for private study, scholarship, research or language learning purposes only